Weezer - American Gigalo Chords & Tabs

 

American Gigalo Chords & Tabs

Weezer Chords & Tabs

Version: 1 Type: Bass Tab 0 ratings
1 star 2 stars 3 stars 4 stars 5 stars
comments

American Gigalo Bass Tab

   
Weezer - American Gigolo
Name: Weezer Kid Joey
E-Mail: PunkRockKid18288@aol.com
Tuning: Basic G-----
              D-----
              A-----
              E-----
I took my friends Idea and mixed wit the other guy who did tabs 4 this song.
(Listen To Music To Here When To Change Parts)

Intro 
|-------------------------------------------------------------| 
|-------------------------------------------------------------|       
|---------------111-22-3-----------------------------------|  
|-111-22-3-------------------------------------------------| 

Verse 
|-------------------------------------------------------------| 
|-------------------------------------------------------------| 
|----------------33-44-55----------------------------------|  
|-11-22-33-------------------------------------------------| 


Keep On part 
|-------------------------------------------------------------| 
|-------------------------------------------------------------| 
|-------------------------------------------------------------|  
|-5-5-5-5-5-5-5-5-5-5-5-5-5-5-------------------------|

If you want me.......... 
|-------------------------------------------------------------| 
|-------------------------------------------------------------| 
|-------------------------------------------------------------|  
|-1-1-1-1-1-1-1-1-1-1-1-1-1-1-1----------------------| 

Repeat Intro 

Repeat Keep On Part 

Repeat If U Want Me.... Part
[ Tab from: http://www.guitartabs.cc/tabs/w/weezer/american_gigalo_btab.html ]
Iíve seen this game before.......my love walks... part 
|-------------------------------------------------------------| 
|-------------------------------------------------------------| 
|-1-1-1-1--3-3-3-3--------------5-5-5-5--------------------|   
|----------------------1-1-1-1-----------------------------| 


There aint no love..... Part 
|-------------------------------------------------------------| 
|-------------------------------------------------------------| 
|-1-1-1-1--0-0-0-0---------------------------------------| 
|-------------------------------------------------------------| 

Repeat Verse

Repeat If U Want Me.... Part

Repeat Iíve seen this game before.......my love walks... part 

Repeat There aint no love..... Part 

Repeat Verse

Outro 
|-------------------------------------------------------------| 
|-------------------------------------------------------------| 
|-333-44-5------------------------------------------------| 
|-------------------------------------------------------------|

Well, There It Is, Hope that u think it sounds right.
===========Weezer - American Gigalo
Tabbed By: Jason Burgess
EMail: bigjrb77@yahoo.com

Verse and Solo
G
D
A         333 44 5
E 111 22 3

Pre-Chorus
G
D
A 5...
E

Chorus
G
D
A            1111
E 11111111111    11...

"I've seen this game before"
G
D
A
E 6666 8888 6666 1111

Ending
G
D
A
E 1 3/

bigjrb77@yahoo.com
Comments