Weesuq - Nameless Chords & Tabs

 

Nameless Chords & Tabs

Weesuq Chords & Tabs

Version: 1 Type: Tab 0 ratings
1 star 2 stars 3 stars 4 stars 5 stars
comments

Nameless Tab

Weesuq, Nameless (demo)

This song was written by Patrik M, Member of the group called Weesuq. It's an easy song to play but you need some electric guitars and drums to get it right. If you haven't heared the song earlier, head for come.to/weesuq to download a copy. It's great for newbee bands to practice with. Lyrics are not included.

This tab is only for educational use. Please don not copy anything without permission from the author.

Intro

First guitar

Heavy disort.
                                                         Let ring.........
e ----1/5---5-5-5-5-5-5-5-5-5-5-------------------------------------------------------------------
b ----1/5---5-5-5-5-5-5-5-5-5-5-------------------------------------------------------------------
g ----------------------------------------------------------------------------------------------------                           d ----------------------------------------------------------------------------------------------------
a ----------------------------------------------------------------------------------------------------
E ----------------------------------------------------------------------------------------------------

1 time

Second guitar 

Light disort

e -----------------------------------------------------------------------------------------------------
b -----------------------------------------------------------------------------------------------------
g ----------------------------------------------------------------------------------------------------- 
d -------------------------------7-7-7-7-7-7-7-7----------------5-5-5-5-5-5-5-5-----------------
a ------------------------------------------------7-7-7-7-7-7-7-7---------------5-5-5-5-5-5-5-5-
E -----------------------------------------------------------------------------------------------------

1 time                                Drums join in , continue play the drums forthe rest of the song.

Verse 
 
First guitar

Heavy disort.
                                                                                                                             Let ring
e ----------------------------------------------------------------------------------------------------
b ----------------------------------------------------------------------------------------------------
g ----------------------------------------------------------------------------------------------------                           d --------------------------------------7---------------------------------5--------------------------
a --------------------------------------5----------------7----------------3---------------5----------
E -------------------------------------------------------5---------------------------------3---------

5 times

Second guitar

Light disort.

e -----------------------------------------------------------------------------------------------------
b -----------------------------------------------------------------------------------------------------
g ----------------------------------------------------------------------------------------------------- 
d -------------------------------7-7-7-7-7-7-7-7----------------5-5-5-5-5-5-5-5-----------------
a ------------------------------------------------7-7-7-7-7-7-7-7---------------5-5-5-5-5-5-5-5-
E -----------------------------------------------------------------------------------------------------

5 times

Chourus

Heavy disort.

e ----------------------------------------------------------------------------------------------------
b ----------------------------------------------------------------------------------------------------
g ----------------------------------------------------------------------------------------------------                           d ------7-7-7-7-7-7-7--7---------------------5-5-5-5-5-5-5--5----------------------------------
a ------5-5-5-5-5-5-5--5-7-7-7-7-7-7-7--7-3-3-3-3-3-3-3--3-5-5-5-5-5-5-5-5---5---------
E --------------------------5-5-5-5-5-5-5--5--------------------7-7-7-7-7-7-7-7---7------------

2 times

The third time, play this

e ----------------------------------------------------------------------------------------------------
b ----------------------------------------------------------------------------------------------------
g ----------------------------------------------------------------------------------------------------                           d ------7-7-7-7-7-7-7--7---------------------5-5-5-5-5-5-5-5-5-5-5-5-5-5-5-5----------------
a ------5-5-5-5-5-5-5--5-7-7-7-7-7-7-7--7-3-3-3-3-3-3-3-3-3-3-3-3-3-3-3-3-5-5-5-5-5--
E --------------------------5-5-5-5-5-5-5--5--------------------------------------3-3-3-3-3------

e -----------------------------------------------------------------------------------------------------
b -----------------------------------------------------------------------------------------------------
g ----------------------------------------------------------------------------------------------------- 
d ------------------------------7----------------------------------------------------------------------
a -5-5-5-5-5-5-5-5-5-5-5/7---5--------------------------------------------------------------------
E -3-3-3-3-3-3-3-3-3-3-3/5------------------------------------------------------------------------

Second guitar

Light disort.

e -----------------------------------------------------------------------------------------------------
b -----------------------------------------------------------------------------------------------------
g ----------------------------------------------------------------------------------------------------- 
d --------------------------7-7-7-7-7-7-7-7----------------5-5-5-5-5-5-5-5----------------------
a -------------------------------------------7-7-7-7-7-7-7-7---------------5-5-5-5-5-5-5-5------
E -----------------------------------------------------------------------------------------------------

2 times

The third time, play this

e -----------------------------------------------------------------------------------------------------
b -----------------------------------------------------------------------------------------------------
g ----------------------------------------------------------------------------------------------------- 
d --------------------------7-7-7-7-7-7-7-7----------------5-5-5-5-5-5-5-5-5-5-5-5-5-5-5-5--
a -------------------------------------------7-7-7-7-7-7-7-7----------------------------------------
E -----------------------------------------------------------------------------------------------------

e -----------------------------------------------------------------------------------------------------
b -----------------------------------------------------------------------------------------------------
g ----------------------------------------------------------------------------------------------------- 
d -5-5-5---------------------------------------7------------------------------------------------------
a ------3-3-3-3-3-3-3-3-3-3-3-3-3-3-3-3/5-------------------------------------------------------
E -----------------------------------------------------------------------------------------------------

Verse 
 
First guitar
[ Tab from: http://www.guitartabs.cc/tabs/w/weesuq/nameless_tab.html ]
Heavy disort.
                                                                                                                            Let ring
e ----------------------------------------------------------------------------------------------------
b ----------------------------------------------------------------------------------------------------
g ----------------------------------------------------------------------------------------------------                           d --------------------------------------7---------------------------------5--------------------------
a --------------------------------------5----------------7----------------3---------------5----------
E -------------------------------------------------------5---------------------------------3---------

5 times

Second guitar

Light disort.

e -----------------------------------------------------------------------------------------------------
b -----------------------------------------------------------------------------------------------------
g ----------------------------------------------------------------------------------------------------- 
d -------------------------------7-7-7-7-7-7-7-7----------------5-5-5-5-5-5-5-5-----------------
a ------------------------------------------------7-7-7-7-7-7-7-7---------------5-5-5-5-5-5-5-5-
E -----------------------------------------------------------------------------------------------------

5 times

Chourus

First guitar

Heavy disort.

e ----------------------------------------------------------------------------------------------------
b ----------------------------------------------------------------------------------------------------
g ----------------------------------------------------------------------------------------------------                           d ------7-7-7-7-7-7-7--7---------------------5-5-5-5-5-5-5--5----------------------------------
a ------5-5-5-5-5-5-5--5-7-7-7-7-7-7-7--7-3-3-3-3-3-3-3--3-5-5-5-5-5-5-5-5---5---------
E --------------------------5-5-5-5-5-5-5--5--------------------7-7-7-7-7-7-7-7---7------------

2 times

The third time, play this

e ----------------------------------------------------------------------------------------------------
b ----------------------------------------------------------------------------------------------------
g ----------------------------------------------------------------------------------------------------                           d ------7-7-7-7-7-7-7--7---------------------5-5-5-5-5-5-5-5-5-5-5-5-5-5-5-5----------------
a ------5-5-5-5-5-5-5--5-7-7-7-7-7-7-7--7-3-3-3-3-3-3-3-3-3-3-3-3-3-3-3-3-5-5-5-5-5--
E --------------------------5-5-5-5-5-5-5--5--------------------------------------3-3-3-3-3------

e -----------------------------------------------------------------------------------------------------
b -----------------------------------------------------------------------------------------------------
g ----------------------------------------------------------------------------------------------------- 
d ------------------------------7----------------------------------------------------------------------
a -5-5-5-5-5-5-5-5-5-5-5/7---5--------------------------------------------------------------------
E -3-3-3-3-3-3-3-3-3-3-3/5------------------------------------------------------------------------

Second guitar

Light disort.

e -----------------------------------------------------------------------------------------------------
b -----------------------------------------------------------------------------------------------------
g ----------------------------------------------------------------------------------------------------- 
d --------------------------7-7-7-7-7-7-7-7----------------5-5-5-5-5-5-5-5----------------------
a -------------------------------------------7-7-7-7-7-7-7-7---------------5-5-5-5-5-5-5-5------
E -----------------------------------------------------------------------------------------------------

2 times

The third time, play this

e -----------------------------------------------------------------------------------------------------
b -----------------------------------------------------------------------------------------------------
g ----------------------------------------------------------------------------------------------------- 
d --------------------------7-7-7-7-7-7-7-7----------------5-5-5-5-5-5-5-5-5-5-5-5-5-5-5-5--
a -------------------------------------------7-7-7-7-7-7-7-7----------------------------------------
E -----------------------------------------------------------------------------------------------------

e -----------------------------------------------------------------------------------------------------
b -----------------------------------------------------------------------------------------------------
g ----------------------------------------------------------------------------------------------------- 
d -5-5-5---------------------------------------7------------------------------------------------------
a ------3-3-3-3-3-3-3-3-3-3-3-3-3-3-3-3/5-------------------------------------------------------
E -----------------------------------------------------------------------------------------------------

Play chorus twice

Outro

First guitar

Heavy disort.

e ----------------------------------------------------------------------------------------------------
b ----------------------------------------------------------------------------------------------------
g ----------------------------------------------------------------------------------------------------                           d --------------------------------------7---------------------------------5--------------------------
a --------------------------------------5----------------7----------------3---------------5----------
E -------------------------------------------------------5---------------------------------3---------

Play 1 time

Second guitar

Light disort.

e -----------------------------------------------------------------------------------------------------
b -----------------------------------------------------------------------------------------------------
g ----------------------------------------------------------------------------------------------------- 
d --------------------------7-7-7-7-7-7-7-7----------------5-5-5-5-5-5-5-5----------------------
a -------------------------------------------7-7-7-7-7-7-7-7---------------5-5-5-5-5-5-5-5------
E -----------------------------------------------------------------------------------------------------

Play 1 time

Silence for a few seconds

First guitar

Heavy disort.

e ----------------------------------------------------------------------------------------------------
b ----------------------------------------------------------------------------------------------------
g ----------------------------------------------------------------------------------------------------                           d --------------------------------------7---------------------------------5--------------------------
a --------------------------------------5----------------7----------------3---------------5----------
E -------------------------------------------------------5---------------------------------3---------

                                                                                                                     Drumsolo

End
Comments