Weeping Willows - Touch Me Chords & Tabs

 

Touch Me Chords & Tabs

Weeping Willows Chords & Tabs

Version: 1 Type: Tab 0 ratings
1 star 2 stars 3 stars 4 stars 5 stars
comments

Touch Me Tab

Weeping willows- Touch Me
Tabbed by: Per Lopez
[ Tab from: http://www.guitartabs.cc/tabs/w/weeping_willows/touch_me_tab.html ]
Solo:
e--10/12----14-15-14----------------------
B--------------------15-12-10---10/12-----
G-----------------------------------------
D-----------------------------------------
A-----------------------------------------
E-----------------------------------------

e--10/12----14-15-14--------17--19--------
B--------------------15-12----------------
G-----------------------------------------
D-----------------------------------------
A-----------------------------------------
E-----------------------------------------
Comments