Ween - The Mollusk Chords & Tabs

 

The Mollusk Chords & Tabs

Ween Chords & Tabs

Version: 1 Type: Tab 0 ratings
1 star 2 stars 3 stars 4 stars 5 stars
comments

The Mollusk Tab

   
E-------------------------------------------------
B-------------------------------------------------
G-------------------------------------------------
D-------------------0------------0----------------
A--------------2-------------0--------------------
E---------3---------------2-----------------------
	repeat this for a few measures, then it goes…
[ Tab from: http://www.guitartabs.cc/tabs/w/ween/the_mollusk_tab.html ]
The part below is also the progression for the trumpet solo
E-------------------------------------------------------------------------------1-------do this twice but
B--------1----------1-------------------1------------------1---------------1----1-------on your second 
G----------------0-----0------------0------0-----------2-----2---------2----------2-----time, don’t   
D------------2------------2-----0-------------0-----2-----------2---3---------------3---finger-pick    
A--------3-------------------2-------------------0--------------------------------------the F. Instead, strum it,
E---------------------------------------------------------------------------------------then go back to the first
										      	part, you can see what im      
										        talking about below
	   F                           G
E---------1---------------------3---------------------------------------------------------
B---------1---------------------3---------------------------------------------------------
G---------2---------------------4---------------------------------------------------------
D---------3---------------------5---------------------------------------------------------
A------------------------------------------------------------------------------------------
E------------------------------------------------------------------------------------------
Comments