Ween - Roses Are Free Chords & Tabs

 

Roses Are Free Chords & Tabs

Ween Chords & Tabs

Version: 3 Type: Tab 0 ratings
1 star 2 stars 3 stars 4 stars 5 stars
comments

Roses Are Free Tab

   
Intro/Verse
e---6-----4-----11---|
b---6-----4-----11---| Take a piece...
g---7-----5-----12---|
d---8-----6-----13---|
a--------------------|
E--------------------|

Chorus
e---1---3---4---5---6-|
b---1---3---4---5---6-|  Don't forget to...
g---2---4---5---6---7-|
d---3---5---6---7---8-|
a---------------------|
E---------------------|

Solo
e-------3-4-6-4-3----6-4-3----------|
b---3h4-----------4-------4--6-4-3--|
g--3------------------------------3-|
d-----------------------------------|
a-----------------------------------|
E-----------------------------------|
[ Tab from: http://www.guitartabs.cc/tabs/w/ween/roses_are_free_tab_ver_3.html ]
e--4-5------------4-5------------------|
b-----5-6------------5-6---------------|
g--------6-7------------6-7------------|
d-----------7-8------------7-8--bend 9-|
a--------------------------------------|
E--------------------------------------|

Solo Riff
e-------------------------------------------|
b-------------------------------------------|3x
g--bend 5--5--3-3-3SL5-3--3SL5-3---------3--|
d----------------5------5-------5-----3-5-5-|
a-------------------------------------------|
E-------------------------------------------|

e-----------|
b-----------|
g--3-5-b5-3-|
d-----------|
a-----------|
E-----------|

SL=slide
b=bend
h=hammer

this is from watching the live ween dvd in chicago.
SNorks/BSA/R.I.P-ODB
Comments