Ween - Hiv Song Chords & Tabs

 

Hiv Song Chords & Tabs

Ween Chords & Tabs

Version: 3 Type: Tab 0 ratings
1 star 2 stars 3 stars 4 stars 5 stars
comments

Hiv Song Tab

   
-------------------------------------------------------------------------------
			     HIV Song - Ween
-------------------------------------------------------------------------------


Tabbed by: Grant Smith
Email: Bulletproof__Cupid@Hotmail.Com

Tuning: Standard

| /  slide up
| \  slide down
| h  hammer-on
| p  pull-off
| ~  vibrato
| +  harmonic
| x  Mute note

This song is incredably catchy and easy to play


Riff 1

e|---7-7-7-----------4---------7---6--6--4--4--2~--|
B|-----------4---7------7--------------------------|
G|-------------------------------------------------|
D|-------------------------------------------------|
A|-------------------------------------------------|
E|-------------------------------------------------|

e|---2--2h3-3p2--2--2------------------------------|
B|------------------------0--2--0--2--1--0---------|
G|-------------------------------------------------|
D|-------------------------------------------------|        x4
A|-------------------------------------------------|
E|-------------------------------------------------|
                                         AIDS / HIV     



For this second riff, i prefer to play a different way

I like to play:

e|-------------------------------|-------------------------------------------|
B|-------------------------------|-------------------------------------------|
G|-------------------------------|-------------------------------------------|
D|-------------------------------|-------------------------------------------|
A|-------9--8--7-\-5-------7--8--|------------9--8--7-\-5--------------------|
E|---7-----------------7---------|-------7-----------------------------------|
  \                            /
   \-----------  x7 -----------

Alternative Riff for riff 2
[ Tab from: http://www.guitartabs.cc/tabs/w/ween/hiv_song_tab_ver_3.html ]
e|-------------------------------|--------------------------------------------|
B|-------------------------------|--------------------------------------------|
G|-------------------------------|--------------------------------------------|
D|-------------------------------|--------------------------------------------|
A|-------9--8--7-------7--8--9---|-----------9--8--7--------------------------|
E|---7-------------7-------------|-------7------------7-----------------------|
  \                           /
   \----------- x 7 ---------/
                                        

Then Back to riff one for another 4 times


Solo
----


The solo played at the end is basicly just a wah wah'd version of riff 2

Use which-ever riff you prefer to play the solo with


e|--------------------------------|-----------------------------------|
B|--------------------------------|-----------------------------------|
G|--------------------------------|--------9--8--7-\--5-----7--8------|
D|--------------------------------|----7-----------------7------------|
A|-------9--8--7-\-5-------7--8---|-----------------------------------|
E|---7-----------------7----------|-----------------------------------|
  \                           /     \                               /
   \--- x 4, With Wah Wah  --/       \ --- x 3, With Wah Wah   --- /
                                 

Finish On

e|--------------------------------|
B|--------------------------------|
G|-------9--8--7-\--5-----7--8----|
D|---7-----------------7----------|
A|--------------------------------|
E|--------------------------------|


Alternative Solo
----------------

e|--------------------------------|-----------------------------------|
B|--------------------------------|-----------------------------------|
G|--------------------------------|--------9--8--7------7--8--9-------|
D|--------------------------------|----7------------7-----------------|
A|-------9--8--7--------7--8--9---|-----------------------------------|
E|---7-------------7--------------|-----------------------------------|
  \                           /     \                               /
   \--- x 4, With Wah Wah  --/       \ --- x 3, With Wah Wah   --- /
                                 

Finish On

e|--------------------------------|
B|--------------------------------|
G|-------9--8--7-\--5-----7--8----|
D|---7-----------------7----------|
A|--------------------------------|
E|--------------------------------|

Well thats my tab, hope you enjoy!

==============================================================================
Comments