Ween - Freedom Of 76 Chords & Tabs

 

Freedom Of 76 Chords & Tabs

Ween Chords & Tabs

Version: 1 Type: Bass Tab 0 ratings
1 star 2 stars 3 stars 4 stars 5 stars
comments

Freedom Of 76 Bass Tab

 freedom of 76 tabbed by ween

   verse    
[ Tab from: http://www.guitartabs.cc/tabs/w/ween/freedom_of_76_btab.html ]
 g|--------------------------------------------------|
 d|--------------------------------------------------|
 a|-------------0-0-0-0-0-0-2-2-2-2-2-2-0-0-0-0-0-0--|
 e|-0-0-0-0-0-0--------------------------------------|
 
 g|--------------------------------------------------|
 d|--------------------------------------------------|
 a|-3-3-3-3-3-2-2-2-2-2-5-5-5-5-5-4-4-4-4-4----------|
 e|--------------------------------------------------|
 
   chorus
 
 g|--------------------------------------------------|
 d|--------------------------------------------------|
 a|-0-0-0---------------------5-55---5-5--5~~--------|
 e|-------0-0-0-5-5-5-6-6-6-7------7-----------------|

  verse

  chorus

  verse

  chorus till end

  any complaints and/or corrections about this tab e-mail swampy922@hotmail.com

 enjoy!
Comments