Ween - Dont Laugh I Love You Chords & Tabs

 

Dont Laugh I Love You Chords & Tabs

Ween Chords & Tabs

Version: 1 Type: Tab 0 ratings
1 star 2 stars 3 stars 4 stars 5 stars
comments

Dont Laugh I Love You Tab

   
   tabbed by:ween

   E                              B
  and when the sun turns to snow and the grass doesnt grow
      A
  dont laugh i love you
     E                                     B
  i could look outside my window everyday but you wouldnt be there to come

  out and play
   A
  dont laugh i love you
    D        A               E                    D        A
  ernist hemmingway would always be there for me but now ernist hemmingway
    E
  is dead now
   E                               B
  if i could get you back someday dont you say your going away
   A
  dont laugh i love you
   E                               B
  and if you locked me in the sun to the tinkle i would run
   A
  dont laugh i love you


  voice solo

[ Tab from: http://www.guitartabs.cc/tabs/w/ween/dont_laugh_i_love_you_tab.html ]
 e|-12-11-12-11-12-11-14-12-11-12----------------------------------------|
 b|-------------------------------12-12-12-14----------------------------|
 g|-------------------------------------------13-13-13-14-13-14-13-14-13-|
 d|----------------------------------------------------------------------|
 a|----------------------------------------------------------------------|
 e|----------------------------------------------------------------------|

 e|----------------------------------------------------------------------|
 b|-14-13-16-14-------13-------------------------------------------------|
 g|-------------11-13----------------------------------------------------|
 d|----------------------------------------------------------------------|
 a|----------------------------------------------------------------------|
 e|----------------------------------------------------------------------|

   E                       B                       A
  i love you, i love you, i love you, i love you, dont laugh i love you
  E
  i love (play e till end)

 nice and simple enjoy any corrections or complaints e-mail swampy922@hotmail .com
Comments