Weegie 67 - No Name Chords & Tabs

 

No Name Chords & Tabs

Weegie 67 Chords & Tabs

Version: 1 Type: Tab 0 ratings
1 star 2 stars 3 stars 4 stars 5 stars
comments

No Name Tab

weegie 67
no name

preverse

e---------------------------------------------------------------------
b---------------------------------------------------------------------
g-----4-----------6-----4---------------------------------------------
d-----4-----2-----6-----4---------------------------------------------
a-----2-----2-----4-----2---------------------------------------------
e---------------------------------------------------------------------

verse (muted)
[ Tab from: http://www.guitartabs.cc/tabs/w/weegie_67/no_name_tab.html ]
e---------------------------------------------------------------------
b---------------------------------------------------------------------
g-----3-----6-----------6---------------------------------------------
d-----3-----6-----6-----6---------------------------------------------
a-----1-----3-----6-----3---------------------------------------------
e-----------------3---------------------------------------------------

chorus

no guitar

repeat preverse

repeat verse

repeat chorus

breakdown

repeat the preverse muted
Comments