Weed - Study In C Op 1 No Chords & Tabs

 

Study In C Op 1 No Chords & Tabs

Weed Chords & Tabs

Version: 1 Type: Tab 0 ratings
1 star 2 stars 3 stars 4 stars 5 stars
comments

Study In C Op 1 No Tab

#----------------------------------PLEASE NOTE---------------------------------#
#This file is the author's own work and represents their interpretation of the #
#song. You may only use this file for private study, scholarship, or research. #
#------------------------------------------------------------------------------#

Date: Sun, 28 Dec 1997 00:39:40 +0000
From: weed 
Subject: TAB: Study in C op 1 no 9 by Weed


*************************************************************

STUDY in C op 1 no 9: Weed 

The timing is even (no triplets etc). The first 8 bars can
be repeated before proceding to bar 9. Harmony is 2-part,
with the upper in quavers, and the lower mainly in crotchets
shown by an "equals" sign (=) immediately following the note.


2/4 time  Con brio

                           I
1--|---|---|---|---|---|---|---|---|---|---|---|
E ---------|-----------|-----------|-----------|
B -----0---|---1-------|-----1-0---|---0-------|
G -0-----0-|-----2---0-|---------2-|-----0---0-|
D ---2-----|-------2---|---3-------|-------3---|
A -3=--2=--|---0=------|-----------|-------2=--|
E ---------|-------3=--|---1=--2=--|---3=------|

[ Tab from: http://www.guitartabs.cc/tabs/w/weed/study_in_c_op_1_no_tab.html ]
5--|---|---|---|---|---|---|---|---|---|---|---|
E ---0-----|-----0-1---|---0-------|-----------|
B -----3-2-|---3-----0-|-----3-1-0-|---1-------|
G ---------|-----------|-----------|-----0---0-|
D -2-------|-----------|-------3=--|-------2---|
A -3=--1=--|---0=------|-----------|---3=------|
E ---------|-------4=--|---3=------|-----------|


9--|---|---|---|---|---|---|---|---|---|---|---|
E -0---0-1-|---3-------|-----0---0-|-----0-----|
B ---1-----|-----1-0---|---3---1---|---0-----3-|
G ---------|---------2-|-----------|-------1---|
D ---------|-----2-0---|-----------|-----------|
A -3=--2=--|---0=----3-|---2=--0=--|-----------|
E ---------|-----------|-----------|---4=--0=--|

                          III........VIII
13-|---|---|---|---|---|---|---|---|---|---|---||
E -------0-|---1-----5-|---3-4-5-7-|-------8---||
B -1-------|-----2-3---|-----6-5---|-------8---||
G ---1-2---|-----------|---------7-|-------9---||
D ---------|---0-2-3-4-|-----------|------10---||
A -0-2-3-4-|-----------|-----------|-----------||
E ---------|-----------|---3-4-5-7-|---8=------||


Weed  9 May 1997  

*********************************************************
Comments