Wednesday 13 - Welcome To The Strange Place Called Hell Chords & Tabs

 

Welcome To The Strange Place Called Hell Chords & Tabs

Wednesday 13 Chords & Tabs

Version: 1 Type: Tab

Welcome To The Strange Place Called Hell Tab

E-------------------------------------------------------------------------------------|
 B------------------------------------------------------------------------------------|
 G------------------------------------------------------------------------------------|
 D------------------------------------------------------------------------------------|
 A------------------------------------------------------------------------------------|
 E--0000----22--55444-----------------------------------------------------------------|
 this isn't a very good tab at all but no one seems to have tabbed it so far so im gonna 
u a decent idea how it goes.....
[ Tab from: http://www.guitartabs.cc/tabs/w/wednesday_13/welcome_to_the_strange_place_called_hell_tab.html ]
 E-----------------------------------------------------------------------------------|
 B-----------------------------------------------------------------------------------|
 G-----------------------------------------------------------------------------------|
 D-22222-44444444-77777777-66666666--------------------------------------------------|
 A-22222-44444444-77777777-66666666--------------------------------------------------|
 E-00000-22222222-55555555-44444444--------------------------------------------------|

 E-----------------------------------------------------------------------------------|
 B-----------------------------------------------------------------------------------|
 G-----------------------------------------------------------------------------------|
 D--7-7--7-7-7-4--4-4--4-4-4-4--2----------------------------------------------------|
 A--7-7--7-7-7-4--4-4--4-4-4-4--2----------------------------------------------------|
 E--5-5--5-5-5-2--2-2--2-2-2-2--0----------------------------------------------------|

 E-----------------------------------------------------------------------------------|
 B-----------------------------------------------------------------------------------|
 G-----------------------------------------------------------------------------------|
 D-2-2-2-2-2-2-2-2-2-2-2-4-4-7-7-6-6-6-6-6-6-6-6-------------------------------------|
 A-2-2-2-2-2-2-2-2-2-2-2-2-4-4-7-7-6-6-6-6-6-6-6-------------------------------------|
 E-0-0-0-0-0-0-0-0-0-0-0-0-2-2-5-5-4-4-4-4-4-4-4-------------------------------------|