Wednesday 13 - God Is A Lie Chords & Tabs

 

God Is A Lie Chords & Tabs

Wednesday 13 Chords & Tabs

Version: 1 Type: Bass Tab 0 ratings
1 star 2 stars 3 stars 4 stars 5 stars
comments

God Is A Lie Bass Tab

Wednesday 13
God is a lie
Translevania 91020
Kid kid.

Tabbed by - Ding. devilishdude22@hotmail.com

I thought its about time sum1 started tabbing the album, so my mission starts here.

inrto - guitar round plays once then the bass lets note ring.

Part 1

G|----------------------|
D|----------------------|
A|-10~----6~----8~------|
E|-------------------8~-|

then play...

Part 2

G|--------------------------------------------------------------------------|
D|------------------------------------------8-8-8-8-8-8-8-8-----------------|
A|--10-10-10-10-10-10-10-10-6-6-6-6-6-6-6-6-----------------8-8-8-8-8-8-8-8-|
E|--------------------------------------------------------------------------|

Play part 2 round 2 time

Verse (play 4 times)
[ Tab from: http://www.guitartabs.cc/tabs/w/wednesday_13/god_is_a_lie_btab.html ]
G|--------------------------------------------------------------------------|
D|------------------------------------------8-8-8-8-8-8-8-8-----------------|
A|--10-10-10-10-10-10-10-10-6-6-6-6-6-6-6-6-----------------8-8-8-8-8-8-8-8-|
E|--------------------------------------------------------------------------|

pre chourus ( say your prayer for me, incase i forget...)

G|---------------------------------------|
D|-----------------------8-8-8-8---------|
A|---10-10-10-8-6-6-6-6----------8-8-8-8-|
E|---------------------------------------| play twice.

then... ( lifes a grave... Dig it )

G|------------------|
D|------------------|
A|--8-8-6-6-6-6-8-8-|
E|------------------|

Chourus

G|--------------------------------------------------------------------------|
D|------------------------------------------8-8-8-8-8-8-8-8-----------------|
A|--10-10-10-10-10-10-10-10-6-6-6-6-6-6-6-6-----------------8-8-8-8-8-8-8-8-|
E|--------------------------------------------------------------------------|

Play chourus 4 times.

End of chourus

G|--------------|
D|--------------|
A|--10-10-10-10-|
E|--------------| play 8 times

During solo, just play chourus notes through out.

Well that about clears that one off. I hope yoou understand. Any comments dont hesitate 
contact me on devilishdude22@hotmail.com.

cheers ding!!!
Comments