Wednesday 13 - Calling All Corpses Chords & Tabs

 

Wednesday 13 Chords & Tabs

Version: 1 Type: Tab 0 ratings
1 star 2 stars 3 stars 4 stars 5 stars
comments

Calling All Corpses Tab

   
-----------------------------------------------------------------------------
                        Wednesday 13 - Calling All Corpses
-----------------------------------------------------------------------------

Tabbed by: Metalrock4ever

Tuning: CGCFAD

Intro:
D|-------------------|
A|-------------------|
F|-7~-5-7~-10~-8~-7~-|
C|-7~-5-7~-10~-8~-7~-|  x4
G|-5~-3-5~-8~--6~-5~-|
C|-------------------|

D|---------------------|
A|---------------------|
F|---------------------|
C|-3x3x3x3x-5x5x5x5x-0-|
G|-3x3x3x3x-5x5x5x5x-0-|
C|-3x3x3x3x-5x5x5x5x-0-|


Verse:
(Either play chords or play one of the octaves on the C strings)
D|------------------------------------------|
A|------------------------------------------|
F|------------------------------------------|
C|-12x12x12x0-12x12x12x0-0x0x0x0-12x12x12x0-|
G|-12x12x12x0-12x12x12x0-0x0x0x0-12x12x12x0-|
C|-12x12x12x0-12x12x12x0-0x0x0x0-12x12x12x0-|


Pre-Chorus:
(You can choose which octave you want to play for the 5)
D|---------------------------------------|
A|---------------------------------------|
F|---------------------------------------|
C|-0x0x0x0x-0x0x0x0x-0x0x0x0x-0x0x-30-5+-|  x3
G|-0x0x0x0x-0x0x0x0x-0x0x0x0x-0x0x-30-5+-|
C|-0x0x0x0x-0x0x0x0x-0x0x0x0x-0x0x-30-5+-|

D|-------------------------------------|
A|-------------------------------------|
F|-------------------------------------|
C|-0x0x0x0x-0x0x0x0x-0x0x0x0x-0x0x0x0x-|
G|-0x0x0x0x-0x0x0x0x-0x0x0x0x-0x0x0x0x-|
C|-0x0x0x0x-0x0x0x0x-0x0x0x0x-0x0x0x0x-|


Chorus:
D|-------------------|
A|-------------------|
F|-7~-5-7~-10~-8~-7~-|
C|-7~-5-7~-10~-8~-7~-|  x4
G|-5~-3-5~-8~--6~-5~-|
C|-------------------|


Bridge:
|----------------------|
|----------------------|
|-5555-7777------------|
|-5555-7777-33-11-0000-|  x8
|-3333-5555-33-11-0000-|
|-----------33-11-0000-|
[ Tab from: http://www.guitartabs.cc/tabs/w/wednesday_13/calling_all_corpses_tab.html ]
Solo Part:
(I'm not sure with most of the solo)
|-8-8-10-10-5b-5b-4/5~----------------------------------|
|------------------------------1-3b~-6h8-6h8-5h6-5h6-3~-|
|------------------------0-2-3--------------------------|
|----------------------3--------------------------------|
|-------------------------------------------------------|
|-------------------------------------------------------|

|-------------10-10-10~--10-/10--------------------------------/10-10~-|
|-------------10-10-8h10-8--------------1-3-6-6h8-6h8-6h8-6h8----------|
|-5-55-5-7-7~---------------------0-2h3--------------------------------|
|-------------------------------3--------------------------------------|
|----------------------------------------------------------------------|
|----------------------------------------------------------------------|


Pre-Verse:
D|---------------------|
A|---------------------|
F|---------------------|
C|-3x3x3x3x-5x5x5x5x-0-|
G|-3x3x3x3x-5x5x5x5x-0-|
C|-3x3x3x3x-5x5x5x5x-0-|


Verse 2:
(Either play chords or play one of the octaves on the C strings)
D|------------------------------------------|
A|------------------------------------------|
F|------------------------------------------|
C|-12x12x12x0-12x12x12x0-0x0x0x0-12x12x12x0-|
G|-12x12x12x0-12x12x12x0-0x0x0x0-12x12x12x0-|
C|-12x12x12x0-12x12x12x0-0x0x0x0-12x12x12x0-|


Pre-Chorus:
(Either play chords or play one of the octaves on the C strings)
D|---------------------------------------|
A|---------------------------------------|
F|---------------------------------------|
C|-0x0x0x0x-0x0x0x0x-0x0x0x0x-0x0x-30-5+-|  x3
G|-0x0x0x0x-0x0x0x0x-0x0x0x0x-0x0x-30-5+-|
C|-0x0x0x0x-0x0x0x0x-0x0x0x0x-0x0x-30-5+-|

D|-------------------------------------|
A|-------------------------------------|
F|-------------------------------------|
C|-0x0x0x0x-0x0x0x0x-0x0x0x0x-0x0x0x0x-|
G|-0x0x0x0x-0x0x0x0x-0x0x0x0x-0x0x0x0x-|
C|-0x0x0x0x-0x0x0x0x-0x0x0x0x-0x0x0x0x-|


Final Chorus:
D|-------------------|
A|-------------------|
F|-7~-5-7~-10~-8~-7~-|
C|-7~-5-7~-10~-8~-7~-|  x3
G|-5~-3-5~-8~--6~-5~-|
C|-------------------|

D|-----------------------|
A|-----------------------|
F|-7~-5-7~-10~-8~-77-5-7-|
C|-7~-5-7~-10~-8~-77-5-7-|
G|-5~-3-5~-8~--6~-55-3-5-|
C|-----------------------|

************************************

| /   slide up
| \   slide down
| h   hammer-on
| ~   vibrato
| +   harmonic
| x   Mute note
| b   Bend

************************************

If you have any comments/corrections, please say in either the comments box or leave me 
a message.
Good luck and enjoy!
Comments