Wednesday 13 - Bad Things Chords & Tabs

 

Wednesday 13 Chords & Tabs

Version: 4 Type: Tab 0 ratings
1 star 2 stars 3 stars 4 stars 5 stars
comments

Bad Things Tab

        Artist     Wednesday 13
          Song     Bad Things
        tuning     Half step down (E flat, A flat, D flat etc.)
     tabbed by     James Hampton
    difficulty     Novice

    INTRO/BRIDGE: very simple       ]]]]]
                                        ]
              GTR1 - RIFF A             ]
  -----------------------------------   ]
  -----------------------------------   ]
  -----------------------------------   ]
  -4-4-4---x-7-7-7-4-4-2-4-----4-4-2-   ]
  -4-4-4---x-7-7-7-4-4-2-4-----4-4-2-   ]
  -2-2-2---x-5-5-5-2-2-0-2-----2-2-0-   ]
                                        ]
 [--------------x2-------------------]  ]
                                        ]
              GTR2 - FILL A             ]
  -----------------------------------   ]
  -----------------------------------   ]
  -----------------------------------   ]      PLAY THE SECOND TIME OF
  -----------------------------------   ]        GTR1 PLAYING
  -----------------------------------   ]
  -------------------------------14\0   ]
                                        ]
 [--------------x1-------------------]  ]
  ]]]]]]]]]]]]]]]]]]]]]]]]]]]]]]]]]]]]]]]

              GTR1+2 - RIFF B
  -----------------------------------------------------------|
  -----------------------------------------------------------|
  -----------------------------------------------------------|
  -4-4-4---x-7-7-7-4-4-2-4-----4-4-2-4-4-4---x-7-7-7-4-4-2-4-|
  -4-4-4---x-7-7-7-4-4-2-4-----4-4-2-4-4-4---x-7-7-7-4-4-2-4-|
  -2-2-2---x-5-5-5-2-2-0-2-----2-2-0-2-2-2---x-5-5-5-2-2-0-2-|


  VERSE1 :The verse is RIFF A played by GTR1 and GTR2 7 times. Then after
        that you play this once. Also there are these lyrics.


          A bullet in your head.......is how i want it
          and your body on the floor.... a kodak moment
          and your a waste of air....and a waste of space
          i want  sharp   ob--jects to fly....into your face
          i hate you know.....more than i ever did
          i wanna kill you......dig you up and do it again
          i wan't a car.....to run.....over your head
          put it in reverse..... and do it again

              GTR1 + GTR2RIFF C
  ------------------------------------|
  ------------------------------------|
  ------------------------------------|
  -4-4-4---x-7-7-7-4-4-2-4------------|
  -4-4-4---x-7-7-7-4-4-2-4------------|
  -2-2-2---x-5-5-5-2-2-0-2------------|

                        [-LET-RING---]


  PRE-CHORUS:Very simple with these lyrics

  And I.....would be lying.......if i said that it wasn't true

              GTR1+2
  --------------------------------------------------------------|
  --------------------------------------------------------------|
  --------------------------------------------------------------|
  ----7--------------6----------------5-------------------------|
  ----7--------------6----------------5-------------------------|
  ----5--------------4----------------3-------------------------|

      I only wan't

  -----------------|
  -----------------|
  -----------------|
  -5\\\\-----------|
  -5\\\\-----------|
  -3\\\\-----------|

  CHORUS1: The chorus is RIFF A played by GTR1 + GTR2 3 times, then
          RIFF C once. Also include these lyrics.....

          Bad..things.....to happen to you
          I want..bad..things.....to happen to you
          I want..bad..things.....to happen to you
          I want..very bad things.....to happen to you  -(scream)


  SOLO 1 : GTR1 plays Riff A 2 times, RIFF B once
           GTR2 plays solo

  Verse 2: same but with different lyrics
[ Tab from: http://www.guitartabs.cc/tabs/w/wednesday_13/bad_things_tab_ver_4.html ]
           It would be really great..if you drowned in a lake
           I'll put a bag over you face and watch you suffocate
           I'd celebrate at your wake......I'd bake myself a cake
           Cause your my favorite person that i love to hate
           And your the reason..that murder..should be legalized
           If it was.... you'd be dead and in the ground by five
           Just in case i forgot to say
           I hate you mother fucker in the very worst way


  PRE-CHORUS:Very simple with these lyrics

  And I.....would be lying.......if i said that it wasn't true

              GTR1+2
  --------------------------------------------------------------|
  --------------------------------------------------------------|
  --------------------------------------------------------------|
  ----7--------------6----------------5-------------------------|
  ----7--------------6----------------5-------------------------|
  ----5--------------4----------------3-------------------------|

      I only wan't

  -----------------|
  -----------------|
  -----------------|
  -5\\\\-----------|
  -5\\\\-----------|
  -3\\\\-----------|

  CHORUS 2 : The chorus is RIFF A played by GTR1 + GTR2 3 times, then
             RIFF C once. Also include these lyrics.....

          Bad..things.....to happen to you
          I want..bad..things.....to happen to you
          I want..bad..things.....to happen to you
          I want..very bad things.....to happen to yoooooooooouuuuuuuuu


  SOLO 2 : GTR1 plays RIFF A 4 Times
           GTR2 plays solo


            GTR2 SOLO

            GTR1 THIS
  --------------------------------------------------------------|
  --------------------------------------------------------------|
  --------------------------------------------------------------|
  ----7--------------6----------------5-------------------------|
  ----7--------------6----------------5-------------------------|
  ----5--------------4----------------3-------------------------|

  ---------------------|
  ---------------------|
  ---------------------|
  -5---------5\\\\-----|
  -5---------5\\\\-----|
  -3---------3\\\\-----|

 [-let-ring------------]


    INTRO/BRIDGE:                   ]]]]]
                                        ]
              GTR1 - RIFF A             ]
  -----------------------------------   ]
  -----------------------------------   ]
  -----------------------------------   ]
  -4-4-4---x-7-7-7-4-4-2-4-----4-4-2-   ]
  -4-4-4---x-7-7-7-4-4-2-4-----4-4-2-   ]
  -2-2-2---x-5-5-5-2-2-0-2-----2-2-0-   ]
                                        ]
 [--------------x2-------------------]  ]
                                        ]
              GTR2 - FILL A             ]
  -----------------------------------   ]
  -----------------------------------   ]
  -----------------------------------   ]      PLAY THE SECOND TIME OF
  -----------------------------------   ]        GTR1 PLAYING
  -----------------------------------   ]
  -------------------------------14\0   ]
                                        ]
 [--------------x1-------------------]  ]
  ]]]]]]]]]]]]]]]]]]]]]]]]]]]]]]]]]]]]]]]

              GTR1+2 - RIFF B
  -----------------------------------------------------------|
  -----------------------------------------------------------|
  -----------------------------------------------------------|
  -4-4-4---x-7-7-7-4-4-2-4-----4-4-2-4-4-4---x-7-7-7-4-4-2-4-|
  -4-4-4---x-7-7-7-4-4-2-4-----4-4-2-4-4-4---x-7-7-7-4-4-2-4-|
  -2-2-2---x-5-5-5-2-2-0-2-----2-2-0-2-2-2---x-5-5-5-2-2-0-2-|

  CHORUS 3: GTR1 + GTR2 play RIFF A 4 times
            Then GTR1 plays RIFF A 3 times and RIFF C once (let ring
            for a long time on last note)and GTR2 plays a solo
            Also the following lyrics......


            I want..bad..things.....to happen to you
            I want..bad..things.....to happen to you
            I want..bad..things.....to happen to you
            I want..very bad things.....to happen to you
            I want..bad..things.....to happen to you
            I want..bad..things.....to happen to you
            I want..bad..things.....to happen to you
            I want..very bad things.....to happen to yoooooooooouuuuuuuuu

                 This tab took me ages so please rate it and leave a comment
Comments