Wednesday 13 - Bad Things Chords & Tabs

 

Bad Things Chords & Tabs

Wednesday 13 Chords & Tabs

Version: 3 Type: Bass Tab

Bad Things Bass Tab

I've had to make the notes higher on this one, because I'll
always try and find a way of not retuning. I hate retuning.
Any errors, PM Kobrakai (me).
[ Tab from: http://www.guitartabs.cc/tabs/w/wednesday_13/bad_things_btab_ver_3.html ]
Intro/verse/solo/chorus
G-----------1-1--------------------------------------------|
D--3-3-3--3-----3-3-1-3--3---------------------------------|
A----------------------------------------------------------|
E----------------------------------------------------------|

Prechorus
G-1-1-1-1-1-1-1-1------------------------------------------|
D-----------------5-5-5-5-5-5-5-5-4-4-4-4-4-4-4-4-3--------|
A----------------------------------------------------------|
E----------------------------------------------------------|
(then back into main riff)