Wednesday 13 - 197666 Chords & Tabs

 

Wednesday 13 Chords & Tabs

Version: 2 Type: Tab 0 ratings
1 star 2 stars 3 stars 4 stars 5 stars
comments

197666 Tab

   
-------------------------------------------------------------------------------
			     SONG NAME - Band Name
-------------------------------------------------------------------------------
Tabbed by:Ewan Boissinot
Email:Eastwdbois@yahoo.co.uk

Tuning:Standad
   INTRO
e|--------------------------------------------------------------------------|
B|--------------------------------------------------------------------------|
G|--------------------------------------------------------------------------|
D|-----7-------7------------------------------------------------------------|
A|-----5-------5--10--5----7------------------------------------------------|
E|---0------0-----8---3----5--X-14------------------------------------------|

   VERSE 1
e|--------------------------------------------------------------------------|
B|--------------------------------------------------------------------------|
G|--------------------------------------------------------------------------|
D|--------------------------------------------------------------------------|
A|---7------10-----5----7---------------------------------------------------|
E|---5-X8---8--X8--3-X8-5-X8------------------------------------------------|
[ Tab from: http://www.guitartabs.cc/tabs/w/wednesday_13/197666_tab_ver_2.html ]
      Bridge
e|---------------------------------------------------------------------------|
B|---------------------------------------------------------------------------|
G|---------------------------------------------------------------------------|
D|-7-10-7-10-7-7-10-7-10-7-5-7-----------------------------------------------|
A|---------------------------------------------------------------------------|
E|---------------------------------------------------------------------------|

      Chorus Play the hole thing twice
e|-----------------------------------------------------------------------------|
B|-----------------------------------------------------------------------------|
G|-----------------------------------------------------------------------------|
D|-----------------------------------------------------------------------------|
A|--5------10------------------------------------------------------------------|
E|--7--X7--8--Play-this-twice-through------------------------------------------|

e|-------------------------------------------------------------------------------|
B|-------------------------------------------------------------------------------|
G|-------------------------------------------------------------------------------|
D|-------------------------------------------------------------------------------|
A|---5-7-------------------------------------------------------------------------|
E|---3-5-------------------------------------------------------------------------|

I will post the solo as soon as i work it out ENJOY!
| /  slide up
| \  slide down
| h  hammer-on
| p  pull-off
| ~  vibrato
| +  harmonic
| x  Mute note
===============================================================================
Comments