Weatherly Fred - Danny Boy Chords & Tabs

 

Danny Boy Chords & Tabs

Weatherly Fred Chords & Tabs

Version: 1 Type: Tab 2 ratings
1 star 2 stars 3 stars 4 stars 5 stars
comments

Danny Boy Tab

Danny Boy by Fred Weatherly


E |-------|-----------0-----|----------------|-------0---------|---------------|
B |-------|-0-------0---3-0-|------------0-1-|-3-------3-0---0-|---------------|
G |---0-2-|---0---2---------|-2-0------0-----|-----0-------0---|-2-----2---0-2-|
D |-4-----|-----0-----------|-----2--2-------|---0-----2-------|---------4-----|
A |-------|-------------2---|-3------2---0---|-----------------|-3--2--0-------|
E |-------|-3---------------|----------------|-3---------------|---------------|

|-----------0-----|----------------|-----------------|------------0-2-|
|-0-------0---3-0-|----------------|-0-----1-0-------|----------3-----|
|---0---2---------|-2-0--------0-2-|-----0-----2-0-2-|-0------0-------|
|-----0-----------|-----2--2-4-----|---0---------0---|-----0----------|
|-------------2---|-3------2---0---|---------0-------|---2--------3-2-|
|-3---------------|----------------|-3---------------|-3--------------|

|-3----2-2-0---0-|------------0-2-|-3----2-2-0-----|---------------|
|-0----------3---|-3-0------3-----|-0----------3-0-|---------3-3-3-|
|-0--------------|-----0--0---0-2-|----------------|-2-----2-------|
|------------0---|--------0-------|-2--0-----------|-------0-------|
|----2---3-------|----------------|--------3---2---|-0--4----------|
|-0--------------|-3--------------|----------------|---------------|
[ Tab from: http://www.guitartabs.cc/tabs/w/weatherly_fred/danny_boy_tab.html ]
|-7---5-5-3-0-3-|-----------------|---0-------------|--------------|
|-0-------------|-3-0-------------|-0---3-0---------|--------------|
|-0-------------|-----0---0---0-2-|---------2-0-----|-0----0---0-2-|
|-0-------------|-----------4-----|-------------2-4-|--------4-----|
|-------3---2-0-|-----------------|-----2---3-2-0---|--------------|
|---------------|-3-----2-0-------|-3---------------|-3------------|

|----------0-----|----------------|-----0---------|-----------------|
|-0------0---3-0-|------------0-1-|-3-----3-0---0-|-----------------|
|-0----2---------|-2-0------0-----|-0---------0---|-2-------2---0-2-|
|----4---2-------|-----2----------|-2-------------|---------0-4-----|
|----------------|-0-2-3--3---2---|-------2-------|-0-2-3-4---------|
|----------------|----------------|-3-------------|-----------------|

|---------0-----|----------------|---------------|----------0-2-|
|-0-----0---3-0-|----------------|-0---1-0-------|--------3-----|
|-0---2-0---4-0-|-2-0--------0-2-|-0-------2-0-2-|-0----0-------|
|-----4---------|-----2--2-4-----|-0---------0---|-0------------|
|---------------|-3------2---0---|-------0-------|--------------|
|---------------|----------------|-3-------------|-3------------|

|-3---2-2-0---0-|------------0-2-|-3----2-2-0-----|---------------|
|-0---------3---|-3-0------3-----|-0----------3-0-|---------3-3-3-|
|-------2-------|-0---0--0-------|----------------|-2-----2-------|
|---------------|-----0----------|-2--0-----------|-------0-------|
|---------------|----------------|--------3---2---|-0--4----------|
|---------------|----------------|----------------|---------------|

|-7----5-5-3-0-3-|-----------------|---0-------------|-----------|
|----------------|-3-0-------------|-0---3-0---------|-----------|
|-0--------------|-----0---0---0-2-|---------2-0-----|-0----0----|
|----0-----------|-----------4-----|-------------2-4-|-0----0----|
|--------3-------|-2---3-2-0-------|-----2---3-2-0---|-2----2----|
|----------------|-----------------|-3---------------|-3----3----|
Comments