Weasles Luk - Pony Chords & Tabs

 

Pony Chords & Tabs

Weasles Luk Chords & Tabs

Version: 1 Type: Bass Tab 0 ratings
1 star 2 stars 3 stars 4 stars 5 stars
comments

Pony Bass Tab

Song Title: Pony
Artist: Weasles Luk
Album: Self Titled e.p.
Tabbed by:  evan
Notes:	its hard to get the rythm down in tab, but this is the right. 
	figure it out. 	


Intro:				   
G:|---------11-----------11-------|---11--------------------------|-
D:|--9--9--------9---9--------9---|---------11-----9------8-------|-
A:|-------------------------------|-------------------------------|-
E:|-------------------------------|-------------------------------|-



G:|----------9-----------9--------|---------11-----------11-------|-
D:|--7--7--------7---7-------7-8--|--9--9--------9---9--------9---|-
A:|-------------------------------|-------------------------------|-
E:|-------------------------------|-------------------------------|-

            
  
G:|----------8------------8-------|----------9-----------9--------|-
D:|--6--6--------6---6--------6---|--7--7--------7---7-------7----|-
A:|-------------------------------|-------------------------------|-
E:|-------------------------------|-------------------------------|-



G:|---9------------7--------------|---6---------------------------|-
D:|-------------------------------|---------------------------9h8-|-
A:|-------------------------------|-------------------------------|-
E:|-7------------5----------------|-4-----------------------------|-


  Verse:
G:|-------------------------------|-------------------------------|-
D:|-------------------------------|-------------------------------|-
A:|-------------------------------|-------------------------------|-
E:|-7---7---7---7---4---4---4---4-|-5---5---5---5---5---5---5---5-|-3x 


G:|-------------------------------|-------------------------------|-
D:|-------------------------------|-------------------------------|-
A:|-------------------------------|-------------------------------|-
E:|-7---7---7---7---4-----4-----4-|5-5-5-5-5-5-5-5-5-5-5-5-5-5-5-5|- 
[ Tab from: http://www.guitartabs.cc/tabs/w/weasles_luk/pony_btab.html ]
(Verse again)            

Chorus:
G:|-------------------------------|-------------------------------|-
D:|o------------------------------|-------------------------------|-
A:|o---------9------------9-------|----------7------------7-------|-
E:|--7--7--------7---7--------7---|--5--5--------5---5--------5---|-


G:|-------------------------------|----------11-11------------9-9-|-
D:|-------------------------------|-9--------------7--------------|-
A:|----------6------------6-------|-------------------------------|-
E:|--4--4--------4---4--------4---|-------------------------------|-
        			
                                 
G:|-------------------------------|-------------------------------|-
D:|6------------------------------|------------------------------8|-
A:|-------------------------------|-------------------------------|-
E:|-------------------------------|-------------------------------|-


(Verse)2x

(Chorus)

Outro (let each of these notes get four beats, except 9 gets eight)
G:|-------------------------------|-------------------------------|-
D:|----------------------------2--|---3-----5----6-----7----9-----|-
A:|-------------2-----3-----5-----|-------------------------------|-
E:|----3-----5--------------------|-------------------------------|-

play this 8x
G:|-------------------------------------|-
D:|--9-9-9-9-9-9-9-9-9-9-9-9-9-9-9-9-9--|-
A:|-------------------------------------|-
E:|-------------------------------------|-


G:|-------------------------------|-------------------------------|-
D:|-9-------9-------9------9------|-9-------9-------9------9------|-
A:|-------------------------------|-------------------------------|-
E:|-------------------------------|-------------------------------|-


G:|-------------------------------|-
D:|-9-9-------------------------9-|-
A:|-------------------------------|-
E:|-------------------------------|-

Comments