Weakerthans - Wellingtons Wednesday Chords & Tabs

 

Wellingtons Wednesday Chords & Tabs

Weakerthans Chords & Tabs

Version: 1 Type: Tab 0 ratings
1 star 2 stars 3 stars 4 stars 5 stars
comments

Wellingtons Wednesday Tab

Standard Tuning

Verse
E---------------------|--------------------------------------------|
B---------------------|--------------------------------------------|
G---9-----------------|--------------------------------------------|
D---9---9---4---7-----|x4------------------------------------------|
A---7---9---4---7-----|--------------------------------------------|
E-------7---2---5-----|--------------------------------------------|

Chorus
E-------------------------|----------------------------------------|
B-------------------------|----------------------------------------|
G--------9----------------|----------------------------------------|
D--4--9--9--7--4--9-------|----------------------------------------|
A--4--9--7--7--4--9-------|----------------------------------------|
E--2--7-----5--2--7-------|----------------------------------------|
[ Tab from: http://www.guitartabs.cc/tabs/w/weakerthans/wellingtons_wednesday_tab.html ]
Bridge
E---------------|--------------------------------------------------|
B---------------|--------------------------------------------------|
G--9------------|--------------------------------------------------|
D--9--9--4--7---|x3--4--7------------------------------------------|
A--7--9--4--7---|----4--7------------------------------------------|
E-----7--2--5---|----2--5------------------------------------------|

Post-bridge/Pre-verse

Guitar 1 Guitar 2
E---------------|--------------------------------------------------|
B---------------|--------------------------------------------------|
G----9----------|---111111111---111111111----13--------------------|
D----9----7-----|---x-x-x-x-x---x-x-x-x-x----x---------------------|x4
A----7----7-----|---9-9-9-9-9---9-9-9-9-9----11--------------------|
E---------5-----|--------------------------------------------------|


Repeat Verse

Repeat Chorus

Repeat Bridge

Repeat Post-Bridge/Pre-Verse


Pre-Bridge2 Bridge 2
E----------------------------|-------------------|------------------|
B----------------------------|-------------------|------------------|
G----------------------------|-------------------|x2 quietly--------|
D---9--7--9--11--9--11--7----|---2---6---7-------|x2 loudly---------|
A---9--7--9--11--9--11--7----|---2---6---7-------|------------------|
E---7--5--7--9---7--9---5----|---0---4---5---7---|------------------|

Repeat Post-Bridge/Pre-Chorus

End on Very First Chord (High E)
Comments