Weakerthans - One Great City Chords & Tabs

 

One Great City Chords & Tabs

Weakerthans Chords & Tabs

Version: 1 Type: Tab 0 ratings
1 star 2 stars 3 stars 4 stars 5 stars
comments

One Great City Tab

   
-------------------------------------------------------------------------------
			     One Great City - The Weakerthans
-------------------------------------------------------------------------------
Tabbed by: stuckx (max huard)
Email: stuckx@wes44.com

Tuning: EADGBE (CAPO ON 4th FRET)


INTRO

    Dsus/F#      Cadd9       G                     G            Cadd9

e|---------------------------|---------------------------------------------------|
B|---3--3--3--3---3--3--3--3-|--3--3--3--3--3--3--3--3--3--3--3--3---3--3--3--3--|
G|---2--2--2--2---2--2--2--2-|--2--2--2--2--2--2--2--2--2--2--2--2---2--2--2--2--|
D|---------------------------|---------------------------------------------------| X2
A|---------------3--3--3--3--|-------0h2-3----0h2-3-----------------3--3--3--3---|
E|--2--2--2--2---------------|-3--3--------3--------2--2--2--2--2----------------|

    G                    Dsus/F#     Cadd9
[ Tab from: http://www.guitartabs.cc/tabs/w/weakerthans/one_great_city_tab.html ]
e|------------------------------------------------|
B|--3--3--3---3--3--3--3--3--3--3--3--3--3--3--3--|
G|--2--2--2---2--2--2--2--2--2--2--2--2--2--2--2--|
D|---------------0--------------------------------| X4
A|-------0h2-0h2---2-0---------------3--3--3--3---|
E|-3--3----------------3-2--2--2--2---------------|

         Cadd9             Cadd9

e|-------------------------------------------------------|
B|--3--3--3--3--3--3--3--3--3--3--3--3--3--3--3--3--3--3-|
G|--2--2--2--2--2--2--2--2--2--2--2--2--2--2--2--2--2--2-|
D|-------------------------------------------------------| X4
A|-------3--3--3--3--------3--3--3--3--------0--0--0--0--|
E|-0--2--------------0--2--------------0--2--------------|

(1:50) **Too lazy for that small part**

End with this :

e|--3--|
B|--3--|
G|--0--|
D|--0--|
A|--2--|
E|--3--|



| /  slide up
| \  slide down
| h  hammer-on
| p  pull-off
| ~  vibrato
| +  harmonic
| x  Mute note
===============================================================================
Comments