Weakerthans - Letter Of Registration Chords & Tabs

 

Letter Of Registration Chords & Tabs

Weakerthans Chords & Tabs

Version: 1 Type: Tab 0 ratings
1 star 2 stars 3 stars 4 stars 5 stars
comments

Letter Of Registration Tab

Standard Tuning

Intro
E-----------------------------------------------------------------|
B-----------------------------------------------------------------|
G---8--8---8------------------------------------------------------|
D---8--8---8------------------------------------------------------|
A---6--5---6------------------------------------------------------|
E----------8------------------------------------------------------|

Verse
E-------------------|----------------------------------------------|
B-------------------|----------------------------------------------|
G-------------------|----------------------------------------------|
D---8---8---8---8---|x4--------------------------------------------|
A---6---6---8---6---|----------------------------------------------|
E-------8---6---8---|----------------------------------------------|

[ Tab from: http://www.guitartabs.cc/tabs/w/weakerthans/letter_of_registration_tab.html ]
Chorus
__ __
|1,2 |3
E--------------------|-----------|----------------------------------|
B--------------------|-----------|----------------------------------|
G----------8--8---8--|-----------|--8--8--8-------------------------|
D--6---8---8--8---8--|--8--6-----|--8--8--8-------------------------|
A--6---8---6--5---6--|--8--6-----|--6--5--6-------------------------|
E--4---6----------8--|--6--4-----|--------8-------------------------|


Verse


Bridge

repeat first chord many times
E-----------------------------------------------------------------|
B-----------------------------------------------------------------|
G-------------8---------------------------------------------------|
D-6--------8--8---------------------------------------------------|
A-6--------8--6---------------------------------------------------|
E-4--------6------------------------------------------------------|


Verse


Chorus-last three chords an extra time


Repeat Verse


Bridge


verse
E-------------------|
B-------------------|
G-------------------|
D---8---8---5---8---|
A---6---6---5---8---|
E-------8---3---5---|


Repeat Bridge playing the first chords many times
Comments