Weakerthans - Confessions Of A Futon Revolutionist Chords & Tabs

 

Confessions Of A Futon Revolutionist Chords & Tabs

Weakerthans Chords & Tabs

Version: 1 Type: Tab 0 ratings
1 star 2 stars 3 stars 4 stars 5 stars
comments

Confessions Of A Futon Revolutionist Tab

Standard Tuning

Verse
E-------0---|-----------------------------------------------------|
B-------0---|-------------0---------------------------------------|
G--9----6---|x4--------9--6---9-----------------------------------|
D--9----7---|----9--7--9--7---9-----------------------------------|
A--7----7---|----9--7--7--7---7-----------------------------------|
E--0----5---|----7--5--0--5---------------------------------------|


Repeat Verse


Chorus

E--------0---|----------------------------------------------------|
B-----5--0---|----------------------------------------------------|
G-----6--6---|-----6----------------------------------------------|
D--9--6--7---|--9--6---7------------------------------------------|
A--9--4--7---|--9--4---7------------------------------------------|
E--7-----5---|--7------5------------------------------------------|

[ Tab from: http://www.guitartabs.cc/tabs/w/weakerthans/confessions_of_a_futon_revolutionist_tab.html ]
Repeat Verse


Repeat Chorus

E----------------|------------------------------------------------|
B----------------|------------------------------------------------|
G-------6--------|--------6---9-----------------------------------|
D---9---6---7----|x3---9--6---9-----------------------------------|
A---9---4---7----|-----9--4---7-----------------------------------|
E---7-------5----|-----7------------------------------------------|


Bridge     |1,2,3 |4.
E----------------------------|---------------------|--------|----------|
B----------------------------|---------------------|--------|----------|
G---6----------------9---9---|----6----------------|----9---|----------|
D---6--------7---9---9---9---|x2--6------------7---|-9--9---|-99999999-|
A---4--------7---9---7---6---|----4------------7---|-9--7---|-99999999-|
E------------5---7-----------|-----------------5---|-7------|-77777777-|
Comments