Weakertans - Diagnosis Chords & Tabs

 

Diagnosis Chords & Tabs

Weakertans Chords & Tabs

Version: 1 Type: Tab 0 ratings
1 star 2 stars 3 stars 4 stars 5 stars
comments

Diagnosis Tab

Diagnosis - The Weakerthans (Fallow)

This is how I play diagnosis...most of The Weakerthans stuff is pretty cool and
fairly easy to play.

		Intro: 1st	2nd
e---------------------------|-----------------------------
B---------------------------|--6--6--6--6-----------------
G--9--7--6--6---9--7--6--6--|--7--7--7--7-----------------
D--0--0--0--0---0--0--0--0--|--0--0--0--0-----------------
A---------------------------|-----------------------------
E---------------------------|-----------------------------


		Verse:
e--------------------------------------------------------
B----------------------------2--2--x--x--2--2--x--x--2---
G----------------------------2--2--X--X--2--2--X--X--2---
D-2--2--X--X--2--2--X--X--2--0--0--X--X--0--0--X--X--0---
A-2--2--X--X--2--2--X--X--2------------------------------
E-0--0--X--X--0--0--X--X--0------------------------------

e-------------------------------------------------------
B-------------------------------------------------------
G-4--4--x--x--x--4--4--4--------------------------------
D-4--4--x--x--x--4--4--4--4--4--x--x--4--4--4-----------
A-2--2--x--x--x--2--2--2--4--4--x--x--4--4--4-----------
E-------------------------2--2--x--x--2--2--2-----------

e-------------------------------------------------------
B-------------------------------------------------------
G-------------------------------------------------------
D-7--7--x--x--7--7--x--x--7-----------------------------
A-7--7--x--x--7--7--x--x--7-----------------------------
E-5--5--x--x--5--5--x--x--5-----------------------------

		End Verse:
e-------------------------------------------------------
B-------------------------------------------------------
G----------------2--2--2--2--2--------------------------
D-4--4--4--4--4--2--2--2--2--2--------------------------
A-4--4--4--4--4--0--0--0--0--0--------------------------
E-2--2--2--2--2-----------------------------------------
[ Tab from: http://www.guitartabs.cc/tabs/w/weakertans/diagnosis_tab.html ]
		Chorus:
e-------------------------------------------------------
B-------------------------------------------------------
G-------------------------------------------------------
D-------------------------------------------------------
A--11-11-11-9--9--9--12-12-12-11-11-11------------------
E--0--0--0--0--0--0--0--0--0--0--0--0-------------------

e-------------------------------------------------------
B-------------------------------------------------------
G-------------------------------------------------------
D-------------------------------------------------------
A--11-11-11-9--9--9--12-12-12-11-11-11------------------
E--9--9--9--9--9--9--9--9--9--9--9--9-------------------

e-------------------------------------------------------
B-------------------------------------------------------
G-------------------------------------------------------
D-------9--9--9--9--9--9--9\\--4--4--x--4--4--x--4------
A-11\\--9--9--9--9--9--9--9\\--4--4--x--4--4--x--4------
E-9\\---7--7--7--7--7--7--7\\--2--2--x--2--2--x--2------

		Interlude:
e-------------------------------------------------------
B-------------------------------------------------------
G-------------------------------------------------------
D-7--7--7--x--x--7--7--x--7--7--------------------------
A-7--7--7--x--x--7--7--x--7--7--------------------------
E-5--5--5--x--x--5--5--x--5--5--------------------------

e-------------------------------------------------------
B-------------------------------------------------------
G-6--6--6--6--4--4--4--4--------------------------------
D-6--6--6--6--4--4--4--4--7--7--7--7--2--2--2--2--------
A-4--4--4--4--2--2--2--2--7--7--7--7--2--2--2--2--------
E-------------------------5--5--5--5--0--0--0--0--------


Intro x 4 (full intro x 3 then first half once)
Verse x 1
First half of intro once
Verse x 1
End Verse x 1
Chorus x 2
Second half of Intro x 1
First half of Intro x 1 
Verse x 1
First half of intro x 1
Verse x 1
First half of intro x 1
End Verse x 1
Chorus x 2
Interlude x 2 (full, then half)
Second half of Intro x 4
Chorus x 2
Intro x 4 (full intro x 3 then first half once)
Then end on by sliding down to a Em
Comments