We The Kings - Feel Good Inc Chords & Tabs

 

Feel Good Inc Chords & Tabs

We The Kings Chords & Tabs

Version: 1 Type: Tab

Feel Good Inc Tab

verse:
E|--11-11-11-11--9-9----7-7-7-7-9-9-|
B|----11-11-11-11-9------7-7-7-7-9--|
G|----------------------------------|
D|----------------------------------|
A|----------------------------------|
E|----------------------------------|
[ Tab from: http://www.guitartabs.cc/tabs/w/we_the_kings/feel_good_inc_tab.html ]
chorse:
E|--------------------------------------------------------------|
B|--------------------------------------------------------------|
G|--8--8-8-8-8-8-8----------------------------------------------|
D|--8--8-8-8-8-8-8-8--8-8-8-8-8-8-------------------------------|
A|--6--6-6-6-6-6-6-8--8-8-8-8-8-8-6--6-6-6-6-6-6-4--4-4-4-4-4-4-|
E|-----------------6--6-6-6-6-6-6-4--4-4-4-4-4-4-6--6-6-6-6-6-6-|

E|-----------6-9-6---4-2---2-4-2-----|
B|-------7-9-------------4-------3---|
G|--8-10-----------------------------|
D|-----------------------------------|
A|-----------------------------------|
E|-----------------------------------|

endding:
E|-------------------------------|
B|-------------------------------|
G|-----------5-4---2--2-5-4------|
D|--2--2-4-5-5-4---2--2-5-4-5-2--|
A|--2--2-4-5-3-2---0--0-3-2-5-2--|
E|--0--0-2-3----------------3-0--|

thank :D hope you injoy the tab