We Are Scientists - Textbook Chords & Tabs

 

Textbook Chords & Tabs

We Are Scientists Chords & Tabs

Version: 1 Type: Bass Tab

Textbook Bass Tab

We are scientists-Textbook bass tab

Intro
G -------------------------------------------------------|
D ------------6------------4------------6------------4---|
A -7777777777---7777777777---4444444444---4444444444-----|
E -------------------------------------------------------| x2

Verse 1
Falling over backwards for you, falling over everybody else,...
G -------------------------------------------------------|
D ------------6------------4------------6------------4---|
A -7777777777---7777777777---4444444444---4444444444-----|
E -------------------------------------------------------| x2

Verse 2
I know its not my business to...
G ------------------------------------------------------|
D ------------------------------------------------------|
A -0-------2------4------7-----------0-------2-------7--|
E-------------------------------------------------------|

Drums

Verse 1
I permit the advance your making everyone pretends its not your fault...
G -------------------------------------------------------|
D ------------6------------4------------6------------4---|
A -7777777777---7777777777---4444444444---4444444444-----|
E -------------------------------------------------------| x2
[ Tab from: http://www.guitartabs.cc/tabs/w/we_are_scientists/textbook_btab.html ]
Verse 2 (without 7)
Twist my armÖ
G -------------------------------------------------------|
D -------------------------------------------------------|
A -0------2------4------7----------0-------2-------------|
E--------------------------------------------------------|

Bridge
Having every question anwsered...
G ---------------------------------------------------|
D ---------------------------------6-----------------|
A -4--6--7----4--6--7----7--6--------7--6--777-------|
E ---------------------------------------------------| x2

Chorus
G ---------------------------------------------------|
D ---------------------------------------------------|
A -0-----2----7--------4----0-------2-----777777777--|
E ---------------------------------------------------|

Chorus 2 (end of song)
G ----------------------------------------------------|
D ----------------------------------------------------|
A -0-----2----7--------4----0----2--444444--777777777-|
E ----------------------------------------------------|

Outro
G ---------------------------------------------------|
D ---------------------------------------------------|
A -0-----2------77777777777777777777777--------------|
E ---------------------------------------------------|

Order:

Intro
Verse 1
Verse 2
Drums
Verse 1
Verse 2(without 7)
Bridge
Chorus
Verse 1
Verse 2(without 7)
Bridge
Chorus 2(end of song)
Outro

Listen to the song for the rhythm cause I havenít added it everywhere

Enjoy!

tabbed by Nina