We Are Scientists - Rules Dont Stop Chords & Tabs

 

Rules Dont Stop Chords & Tabs

We Are Scientists Chords & Tabs

Version: 2 Type: Bass Tab

Rules Dont Stop Bass Tab

-----------------------------------------------------------------------------
			     Rules Don't Stop - We are Scientists
-----------------------------------------------------------------------------

Tabbed By : James Morrow
e-mail: Siberianmoosecow@gmail.com

Tuning:
Intro 0:00-0:06
G|-7-4-6-4-7-4-9-4-7-4-6-4-7-4-11-4-7-4-6-4-7-4-9-4-7-4-6-4-7-4-11-4------|
D|------------------------------------------------------------------------|
A|------------------------------------------------------------------------|
E|------------------------------------------------------------------------|
Verse
G|---------------------7------7-----------------------9------9------------|
D|-----9------9------------------------5------5---------------------------|X2
A|-----------------5-5---5--5---5-----------------7-7---7--7---7----------|
E|-7-7---7--7---7------------------3-3---3--3---3-------------------------|
[ Tab from: http://www.guitartabs.cc/tabs/w/we_are_scientists/rules_dont_stop_btab_ver_2.html ]
G|---------------------9-----9------------------------9------9------------|
D|-----5------5-----------------------5------5----------------------------|
A|-----------------7-7---7--7--7------------------7-7---7--7---7----------|
E|-3-3---3--3---3-----------------3-3---3--3---3--------------------------|

G|------------------------------------------------------------------------|
D|-----9------9---------9-----9-------------------------------------------|
A|------------------------------------------------------------------------|
E|-7-7---7--7---7---7-7---7-7---7-----------------------------------------|

Chorus
G|------------------------------------------------------------------------|
D|------------------------------------------------------------------------|
A|--------5X16---------00--22------00-------------------------------------|
E|--3X16--------3X16-----------33-----------------------------------------|

Bridge
G|------------------------------------------------------------------------|
D|------------------------------------------------------------------------|
A|-----------------------5X8-----------------5----------------------------|
E|--7X32--3X8--5X8--7X8-------3X8--5X8--7X8-------------------------------|

Order:
Intro
Verse
Chorus
Verse
Chorus
Bridge
Chorus