We Are Scientists - Its A Hit Chords & Tabs

 

Its A Hit Chords & Tabs

We Are Scientists Chords & Tabs

Version: 1 Type: Bass Tab

Its A Hit Bass Tab

standard tuning
intro/bridge
|----------------------------------------------------|
|----------------------------------------------------|
|--4-4-4-4-4-4-4-4----4-4-4-4-4-4-4-4----------------|
|----------------------------------------------------|
verse

|-------------------------------------------------------------|
|-------------------------------------------------------------|     x4
|--7-7-7-7-7-7-7-7---11-11-11-11-11-11--44444444-4444444------|
|-------------------------------------------------------------|


chorus

|---------------------------------------------------------------------|
|---------------------------------------------------------------------|    x2
|---------------77777777777777777-------------------99999999999999999-|
|-5555555555555-------------------77777777777777777-------------------|

intro/bridge    x2

verse
|-------------------------------------------------------------|
|-------------------------------------------------------------|     x2
|--7-7-7-7-7-7-7-7---11-11-11-11-11-11--44444444-4444444------|
|-------------------------------------------------------------|

|-------------------------------------------------------------|
|-------------------------------------------------------------|     x1
|--7-7-7-7-7-7-7-7----------------------44444444-4444444------|
|-------------------4-4-4-4-4-4-4-4-4-------------------------|


|-------------------------------------------------------------|
|-------------------------------------------------------------|     x1
|--7-7-7-7-7-7-7-7---11-11-11-11-11-11--44444444-4444444------|
|-------------------------------------------------------------|

[ Tab from: http://www.guitartabs.cc/tabs/w/we_are_scientists/its_a_hit_btab.html ]
chorus

|---------------------------------------------------------------------|
|---------------------------------------------------------------------|    x2
|---------------77777777777777777-------------------99999999999999999-|
|-5555555555555-------------------77777777777777777-------------------|

intro/bridge    x2

verse
|-------------------------------------------------------------|
|-------------------------------------------------------------|     x2
|--7-7-7-7-7-7-7-7---11-11-11-11-11-11--44444444-4444444------|
|-------------------------------------------------------------|

|-------------------------------------------------------------|
|-------------------------------------------------------------|     x1
|--7-7-7-7-7-7-7-7----------------------44444444-4444444------|
|-------------------4-4-4-4-4-4-4-4-4-------------------------|


|-------------------------------------------------------------|
|-------------------------------------------------------------|     x1
|--7-7-7-7-7-7-7-7---11-11-11-11-11-11--44444444-4444444------|
|-------------------------------------------------------------|


chorus

|---------------------------------------------------------------------|
|---------------------------------------------------------------------|    x4
|---------------77777777777777777-------------------99999999999999999-|
|-5555555555555-------------------77777777777777777-------------------|

outro
|----------------------------------------------------|
|----------------------------------------------------|    x4
|--4-4-4-4-4-4-4-4----4-4-4-4-4-4-4-4----------------|
|----------------------------------------------------|