We Are Scientists - Great Escape Chords & Tabs

 

Great Escape Chords & Tabs

We Are Scientists Chords & Tabs

Version: 3 Type: Bass Tab

Great Escape Bass Tab

   
----------------------------------------------------------------------------
		    THE GREAT ESCAPE - We Are Scientists
----------------------------------------------------------------------------

Tabbed By : bloogy182


Tuning:Standard (E,A,D,G)

Verse (0:13) (x4)
G|-------------------------------------------------------------------------|
D|-------------------------------------------------------------------------|
A|-99-77-99-77-----99-77-99------------------------------------------------|
E|-------------9-9----------99-9b/10-9-------------------------------------|

Chorus Pt. 1 (x2)
G|-------------------------------------------------------------------------|
D|-------------------------------------------------------------------------|
A|-------------------------------------------------------------------------|
E|-55555555-55555555-22222222-22222222-------------------------------------|
Chorus P. 2 (x2)
G|-------------------------------------------------------------------------|
D|-------------------------------------------------------------------------|
A|-22222222-22222222-55555555-5-5-5----------------------------------------|
E|-------------------------------------------------------------------------|

Verse (x3)
G|-------------------------------------------------------------------------|
D|-------------------------------------------------------------------------|
A|-99-77-99-77-----99-77-99------------------------------------------------|
E|-------------9-9----------99-9b/10-9-------------------------------------|
[ Tab from: http://www.guitartabs.cc/tabs/w/we_are_scientists/great_escape_btab_ver_3.html ]
Chorus Pt. 1 (x2)
G|-------------------------------------------------------------------------|
D|-------------------------------------------------------------------------|
A|-------------------------------------------------------------------------|
E|-55555555-55555555-22222222-22222222-------------------------------------|
Chorus P. 2 (x2)
G|-------------------------------------------------------------------------|
D|-------------------------------------------------------------------------|
A|-22222222-22222222-55555555-5-5-5----------------------------------------|
E|-------------------------------------------------------------------------|

Verse (x2)
G|-------------------------------------------------------------------------|
D|-------------------------------------------------------------------------|
A|-99-77-99-77-----99-77-99------------------------------------------------|
E|-------------9-9----------99-9b/10-9-------------------------------------|

Guitar Solo Pt. 1 (x2)
G|-------------------------------------------------------------------------|
D|-------------------------------------------------------------------------|
A|-55555555-55555555-------------------------------------------------------|
E|-------------------77777777-77777777-------------------------------------|
Guitar Solo Pt. 2 (x1)
G|-------------------------------------------------------------------------|
D|-------------------------------------------------------------------------|
A|-------------------------------------55555555-55555555-77777777-88888888-|
E|-55555555-55555555-77777777-77777777-------------------------------------|

Verse (x3)
G|-------------------------------------------------------------------------|
D|-------------------------------------------------------------------------|
A|-99-77-99-77-----99-77-99------------------------------------------------|
E|-------------9-9----------99-9b/10-9-------------------------------------|

Chorus Pt. 1 (x2)
G|-------------------------------------------------------------------------|
D|-------------------------------------------------------------------------|
A|-------------------------------------------------------------------------|
E|-55555555-55555555-22222222-22222222-------------------------------------|
Chorus P. 2 (x2)
G|-------------------------------------------------------------------------|
D|-------------------------------------------------------------------------|
A|-22222222-22222222-55555555-5-5-5----------------------------------------|
E|-------------------------------------------------------------------------|

Tab Legend
=====================
b/ - bend up

I'm  pretty sure this is correct as neither of the other two tabs have noticed that the 
has a bend up. Plz rate. Tnx!