We Are Scientists - Great Escape Chords & Tabs

 

Great Escape Chords & Tabs

We Are Scientists Chords & Tabs

Version: 1 Type: Bass Tab

Great Escape Bass Tab

This is my first tab im submitting, i think it's right, great song by a great
band and an enjoyable song to play to. please rate

Main Riff:

G|--------------------------------------------------------------------------|
D|--------------------------------------------------------------------------|
A|-9-9---77----9-9--77------------9-9--77--9-9------------------------------|
E|----------------------9--9----------------------9-9-9-9-------------------|

Main Riff Alternate:

G|--11----9----11----9------------11----9----11---9-----------------------------|
D|------------------------------------------------------------------------------|
A|-9-----7----9-----7------------9-----7----9----7------------------------------|
E|----------------------9--9--------------------------9-9-9-9-------------------|

Chorus Part 1:

G|------------------------------------|
D|------------------------------------|
A|------------------------------------|                           X2
E|-55555555-9-5-4-22222222-14 12 9--|

Chorus Part 2:
[ Tab from: http://www.guitartabs.cc/tabs/w/we_are_scientists/great_escape_btab.html ]
G|------------------------------------------------------------|
D|------------------------------------------------------------|
A|------------------------------------------------------------|
E|-77777777-7777777-9----1010101010101010---1010101010101010--|

Bridge:

G|----------------------------------------------------------------------------|
D|------4------2-------4--------2-----------------4--------2-------4----------|  
A|- --------------------------------------------------------------------------|
E|--2-------0-------2-------0----------99-----2-------0-------2---------9999--|

G|--------------------------------------|
D|--------------------------------------|                        
A|- ------------------------------------!                 X2
E|-----10101010101010 77777777777-------|

G|----------------------------------------------------------------|
D|----------------------------------------------------------------|                        
A|- -------------------------------------------(8) last time------!                 X2
E|-----55555555555555 77777777777---------------------------------|



Order:
Main Riff
Chorus One
Chorus Two
Main Riff
Chorus One 
Chorus Two
Bridge One
Bridge Two
Bridge three
Main Riff
Chorus One
Chorus two