We Are Scientists - Cash Cow Chords & Tabs

 

Cash Cow Chords & Tabs

We Are Scientists Chords & Tabs

Version: 2 Type: Tab

Cash Cow Tab

this should be spot on. give me a bell if its not though.

cheers

intro

e|---------------------------------|
b|-8-8--10-10--8-8-10-10-8-8-8-8---|
G|-9-9--9--9---9-9-9--9--9-9-9-9---|
D|---------------------------------|
A|---------------------------------|
E|---------------------------------|


mid-verse riff

e|-------------------------------------------------------------------------|
b|-------------------------------------------------------------------------|
G|-12-12-11-11-9-9------------12-12-11-11-9-9-------9-11-11-11-------------|
D|-----------------12-12-9--------------------12-12------------------------|
A|-------------------------------------------------------------------------|
E|-------------------------------------------------------------------------|


chorus

e|-------------        e|-------------------------------------------------|
b|-------------        b|-------------------------------------------------|
G|-9-9---7-7---        G|-12-12-12-12-12-12-14-14-11-11-11-11-11-11-11-11-|
D|-------------        D|-------------------------------------------------|
A|-7-7---5-5---        A|-10-10-10-10-10-10-12-12-9--9--9--9--9--9--9--9--|
E|-------------  x 6   E|-------------------------------------------------|

[ Tab from: http://www.guitartabs.cc/tabs/w/we_are_scientists/cash_cow_tab_ver_2.html ]
verse 2 riff ( . = palm muted)

e|------------------|
b|-------------8-8--|
G|-9-9-7-7-9-9------|
D|-.-.-.-.-.-.------|
A|------------------|
E|------------------| x 8 then mid-verse riff

then chorus

then...

post chorus thingy

e|--------------------------------------------------|
b|--------------------------------------------------|
G|-9-9-x-x-x-x-9-9-x-x-x-x-9-9-x-x-x-x-9-9-x-x-x-x--|
D|--------------------------------------------------|
A|-7-7-x-x-x-x-7-7-x-x-x-x-7-7-x-x-x-x-7-7-x-x-x-x--|
E|--------------------------------------------------|


bridge

e|--------------------------------------------------|
b|--------------------------------------------------|
G|--------------------------------------------------|
D|----------------------------------------------12--|
A|-------------12-12-14-14-------------12-12-14-----|
E|-12-12-15-15-------------12-12-15-15--------------| x 3


e|--------------------------------------------------|
b|--------------------------------------------------|
G|--------------------------------------------------|
D|-------------------------12-12---12-12---12-------|
A|-------------12-12-14-14--------------------------|
E|-12-12-15-15-------------10-10---10-10---10-------|


then chorus x 2

then intro x however many

the end