We Are Scientists - Cash Cow Chords & Tabs

 

Cash Cow Chords & Tabs

We Are Scientists Chords & Tabs

Version: 1 Type: Bass Tab

Cash Cow Bass Tab

   
-------------------------------------------------------------------------------
			     Cash Cow - We Are Scientists
-------------------------------------------------------------------------------

Tabbed By : vampires
e-mail: theblochead@hotmail.co.uk

Tuning: standard EADG

Intro
G|-----------------|----------------|-----------------|----------------|
D|-----------------|----------------|-----------------|----------------|
A|-7-7-7-7-7-7-7-7-|-5-5-5-5-5-5-5-5|-----------------|----------------|
E|-----------------|----------------|-5-5-5-5-5-5-5-5-|-3-3-3-3-3-3-3-3|X2

Verse
"Well I've been taking my time..."
G|-----------------|----------------|-----------------|----------------|
D|-----------------|----------------|-----------------|----------------|
A|-7-7-7-7-7-7-7-7-|-5-5-5-5-5-5-5-5|-----------------|----------------|
E|-----------------|----------------|-5-5-5-5-5-5-5-5-|-3-3-3-3-3-3-3-3|X2

G|-----------------|----------------|-----------------|----------------|
D|-----------------|----------------|-----------------|-----7--7-------|
A|-7-7-7-7-7-7-7-7-|-5-5-5-5-5-5-5-5|-----------------|----------------|
E|-----------------|----------------|-3-3-3-3-3-3-3-3-|-5-5-----5-5-5-5|X2

"Bowlin' out of my car..."
G|-----------------|----------------|-----------------|----------------|
D|-----------------|----------------|-----------------|----------------|
A|-7-7-7-7-7-7-7-7-|-5-5-5-5-5-5-5-5|-----------------|----------------|
E|-----------------|----------------|-5-5-5-5-5-5-5-5-|-3-3-3-3-3-3-3-3|X2

Chorus
"I'm not gonna wait for anything to happen..."
G|-----------------|-----------------|----------------|----------------|
D|-----------------|-----------------|----------------|----------------|
A|-3-3-3-3-3-3-3-3-|-3-3-3-3-3-3-3-3-|----------------|----------------|
E|-----------------|-----------------|-3-3-3-3-3-3-3-3|-3-3-3-3-3-3-3-3|

G|-----------------|-5-5-4-4---------|----------------|----------------|
D|-----------------|---------5-5-----|----------------|-----1-1---1----|
A|-3-3-3-3-3-3-3-3-|-------------3-3-|----------------|-2-2-----2------|
E|-----------------|-----------------|-3-3-3-3-3-3-3-3|----------------|

Verse
"Well I've been talking alot..."
G|-----------------|----------------|-----------------|----------------|
D|-----------------|----------------|-----------------|----------------|
A|-7-7-7-7-7-7-7-7-|-5-5-5-5-5-5-5-5|-----------------|----------------|
E|-----------------|----------------|-5-5-5-5-5-5-5-5-|-3-3-3-3-3-3-3-3|X2

G|-----------------|----------------|-----------------|----------------|
D|-----------------|----------------|-----------------|-----7--7-------|
A|-7-7-7-7-7-7-7-7-|-5-5-5-5-5-5-5-5|-----------------|----------------|
E|-----------------|----------------|-3-3-3-3-3-3-3-3-|-5-5-----5-5-5-5|X2
[ Tab from: http://www.guitartabs.cc/tabs/w/we_are_scientists/cash_cow_btab.html ]
Chorus
"I'm not gonna wait for anything to happen..."
G|-----------------|-----------------|----------------|----------------|
D|-----------------|-----------------|----------------|----------------|
A|-3-3-3-3-3-3-3-3-|-3-3-3-3-3-3-3-3-|----------------|----------------|
E|-----------------|-----------------|-3-3-3-3-3-3-3-3|-3-3-3-3-3-3-3-3|

G|-----------------|-5-5-4-4---------|----------------|----------------|
D|-----------------|---------5-5-----|----------------|-----1-1---1----|
A|-3-3-3-3-3-3-3-3-|-------------3-3-|----------------|-2-2-----2------|
E|-----------------|-----------------|-3-3-3-3-3-3-3-3|----------------|

Bridge
G|------|
D|------|
A|-7--7-|
E|------|X4

G|--------------|--------------|------------------|--------------------|
D|--------------|--------------|------------------|--------------------|
A|-7-5-7--7-5-7-|-9-7-9--9-7-9-|-10-9-10--10-9-10-|-12-10-12--12-10-12-|
E|--------------|--------------|------------------|--------------------|

G|--------------|--------------|------------------|--------------------|
D|--------------|--------------|------------------|--------------------|
A|-7-5-7--7-5-7-|-9-7-9--9-7-9-|-10-9-10--10-9-10-|-5-5--5-5--5--------|
E|--------------|--------------|------------------|--------------------|

Chorus
"I'm not gonna wait for anything to happen..."
G|-----------------|-----------------|----------------|----------------|
D|-----------------|-----------------|----------------|----------------|
A|-3-3-3-3-3-3-3-3-|-3-3-3-3-3-3-3-3-|----------------|----------------|
E|-----------------|-----------------|-3-3-3-3-3-3-3-3|-3-3-3-3-3-3-3-3|

G|-----------------|-5-5-4-4---------|----------------|----------------|
D|-----------------|---------5-5-----|----------------|-----1-1---1----|
A|-3-3-3-3-3-3-3-3-|-------------3-3-|----------------|-2-2-----2------|
E|-----------------|-----------------|-3-3-3-3-3-3-3-3|----------------|


2nd chorus
G|-----------------|-5-5-4-4---------|----------------|----------------|
D|-----------------|---------5-5-----|----------------|----------------|
A|-3-3-3-3-3-3-3-3-|-------------3-3-|----------------|----------------|
E|-----------------|-----------------|-3-3-3-3-3-3-3-3|-3-3-3-3-3-3-3-3|

G|-----------------|-5-5-4-4---------|----------------|----------------|
D|-----------------|---------5-5-----|----------------|-----1-1---1----|
A|-3-3-3-3-3-3-3-3-|-------------3-3-|----------------|-2-2-----2------|
E|-----------------|-----------------|-3-3-3-3-3-3-3-3|----------------|

Ending
G|-----------------|----------------|-----------------|----------------|
D|-----------------|----------------|-----------------|----------------|
A|-7-7-7-7-7-7-7-7-|-5-5-5-5-5-5-5-5|-----------------|----------------|
E|-----------------|----------------|-5-5-5-5-5-5-5-5-|-3-3-3-3-3-3-3-3|X2

thanks. please rate (5 stars!!!)


| /  slide up
| \  slide down
| h  hammer-on
| p  pull-off
| ~  vibrato
| +  harmonic
| x  Mute note
===============================================================================