We Are Scientists - Bomb Inside The Bomb Chords & Tabs

 

Bomb Inside The Bomb Chords & Tabs

We Are Scientists Chords & Tabs

Version: 1 Type: Tab

Bomb Inside The Bomb Tab

this is my first tab so please be nice....ahahahaha=))...some parts in the intro
and chorus are a little iffy so please help me out...send your corrections to
funkiekoala@yahoo.com.ph


intro
|----------------------------------------------------|
|----------------------------------------------------|
|-----9\8/9-11---------------------------------------|
|-4---9\8/9-11----66-5-44----------------------------|
|-4---7\6/7-9-----66-5-44----------------------------|
|-2---------------44-3-22----------------------------|
x2
[ Tab from: http://www.guitartabs.cc/tabs/w/we_are_scientists/bomb_inside_the_bomb_tab.html ]
1st verse
|-------------------------------------------------------|
|-------------------------------------------------------|
|-4--9--11--66--5--44-----------------------------------|
|-4--9--11--66--5--44-----------------------------------|
|-2--7--9---44--3--22-----------------------------------|

chorus
|-------------------------------------------------------|
|-------------------------------------------------------|
|------------------------------------------------5---4--|
|-4---7---2---6---7---6---13---7---6---4---13---5---4---|
|-4---7---2---6---7---6---13---7---6---4---13---3---2---|
|-2---5---0---4---5---4---11---5---4---2---11-----------|

2nd verse
|------------------------------------------------------|
|------------------------------------------------------|
|------------------------------------------------------|
|-6---9---7---11---------------------------------------|
|-6---9---7---11---------------------------------------|
|-4---7---5---9----------------------------------------|

well that's it....i'll try to figure the solo but as of
now i'm too lazy...ahahaha:p.....please rate!