Wax - Mallrats Chords & Tabs

 

Mallrats Chords & Tabs

Wax Chords & Tabs

Version: 1 Type: Bass Tab 0 ratings
1 star 2 stars 3 stars 4 stars 5 stars
comments

Mallrats Bass Tab

Mallrats
by: Wax
From the soundtrack of Mallrats
Tabbed by Daniel Timmerman (free_me_freesia@hotmail.com)

If you haven't seen the movie Mallrats, go buy it first, cause it's funnier than hell.  Then learn this.  Or something.

I left out the chorus because it's just simple strumming, so you can have a blast figuring out the extremeness of it on your own.
[ Tab from: http://www.guitartabs.cc/tabs/w/wax/mallrats_btab.html ]
** = Strum 9 times.
/  = Slide

Intro:
G|-------------------------------------------|
D|----------------5/10**---------------------|
A|-3/7**-------------------------------------|
E|-------------------------------------------|

Verse:
G|-------------------------------------------|
D|-------------------------------------------|
A|-10-10-10-------7-7---------------7--------|
E|----------8-8-8-----10-10-10-8-10---10-----|
Comments