Watson Russell - Upns Enterprise End Credits Chords & Tabs

 

Upns Enterprise End Credits Chords & Tabs

Watson Russell Chords & Tabs

Version: 1 Type: Tab 0 ratings
1 star 2 stars 3 stars 4 stars 5 stars
comments

Upns Enterprise End Credits Tab

Enterprise (a TV show on UPN) 
closing theme
                         
e||--------------------|----------------------|-----------------------------------
B||--------------------|----------------------|----------------------6-----5---3--
G||--------------------|--5----4----2----0----|-----------------5-----------------
D||--5----4----2-------|----------------------|--2----3----5----------------------
A||--------------------|----------------------|-----------------------------------
E||--------------------|----------------------|-----------------------------------


[ Tab from: http://www.guitartabs.cc/tabs/w/watson_russell/upns_enterprise_end_credits_tab.html ]
|------------------------|-------------------3-----------------|
|--8--8------5--5--------|-----8---6-----5-------3-------------|
|------------------------|-5--------------------------5---5----|
|------------------------|-------------------------------------|  
|------------------------|-------------------------------------|
|------------------------|-------------------------------------|

 this repeats once with some cool overdriven licks played softly in the bckgrnd...

 I'm still working on those, but if anyone happens to catch an episode and hears 

 this tune (or dl's it via p2p), and wants to help me out, then please e-mail me.




 /\/\
/    \ | K E                                            mikechristopher@hotmail.com
Comments