Waters Muddy - Mannish Boy Chords & Tabs

 

Mannish Boy Chords & Tabs

Waters Muddy Chords & Tabs

Version: 1 Type: Tab 1 rating
1 star 2 stars 3 stars 4 stars 5 stars
comments

Mannish Boy Tab

Artist: Muddy Waters
Song: Mannish Boy

Standard Tuning

h = hammer on
x = muted string

Main Riff:

e|----------------------------------x-|
B|----------------------------------x-|
G|-------------7------------5-h-6---x-|
D|--------7---------7---------------x-|
A|--------0---------0---------------x-|
E|----------------------------------x-|
[ Tab from: http://www.guitartabs.cc/tabs/w/waters_muddy/mannish_boy_tab.html ]
       (Palm Mute after hammer on)

This is how the riff was given in Total Guitar but I prefer my version, maybe I'm biased:

e|-----------------------------------|
B|-----------------------------------|
G|-------------7------------5-h-6----|
D|--------7----7----7----------------|
A|--------0---------0----------------|
E|-----------------------------------|

Oli Ward
Comments