Wasp - Wild Child Chords & Tabs

 

Wild Child Chords & Tabs

Wasp Chords & Tabs

Version: 1 Type: Tab 0 ratings
1 star 2 stars 3 stars 4 stars 5 stars
comments

Wild Child Tab

                          Wild Child by Wasp

This is the intro riff:
|------------------------------------------------|
|-6---6---4---4--6-6-6---4---4-------------------|
|---5---5---5----------5---5---------------------|
|------------------------------------------------|
|------------------------------------------------|
|------------------------------------------------|
[ Tab from: http://www.guitartabs.cc/tabs/w/wasp/wild_child_tab.html ]
And this is the chords of the intro:
|------------------------------------------------|
|------------------------------------------------|
|------------------------------------------------|
|-3-----6-----8-----3----------------------------|
|-3-----6-----8-----3----------------------------|
|-1-----4-----6-----1----------------------------|

Hope you enjoy it!
Thank you and bye!
Comments