Wasp - My Wicked Heart Chords & Tabs

 

My Wicked Heart Chords & Tabs

Wasp Chords & Tabs

Version: 1 Type: Bass Tab 0 ratings
1 star 2 stars 3 stars 4 stars 5 stars
comments

My Wicked Heart Bass Tab

   
 WASP "My Wicked Heart"
 
 (( Tuning is 1/2 Step Down ))

 I think the point in tuning down is so Duda
 can alternate to opens in a lot of the song.


 Intro:
G|------------------------------------------|
D|------------------------------------------|
A|-5-7--5-3-------5-7----5-7--5-3-------5-7-|
E|-----------3-5-------------------3-5------|
 

 Verse:
G|-----------------------------------------------------|
D|-----------------------------------------------------|
A|-777377777777377777777777777777777777777777777777777-|
E|-----------------------------------------------------| 

 Pre-chorus
G|-----------------------------------------------------|
D|-----------------------------------------------------|
A|-333333333333-555555555555-7777777777777777777777777-|
E|-----------------------------------------------------| Play x3

G|-----------------------------------------------------|
D|-----------------------------------------------------|
A|-333333333333-555555555555-333333333333--------------|
E|----------------------------------------555555555555-|


 First Chorus:
G|---------------------------------------------------------------|
D|---------------------------------------------------------------|
A|-7777777777777777777777777777777777----------------------------|
E|------------------------------------333333333333-5555555555555-|


 Verse:
G|-----------------------------------------------------|
D|-----------------------------------------------------|
A|-777377777777777777777777777777777777777777777777777-|
E|-----------------------------------------------------| 


 Pre-chorus
G|-----------------------------------------------------|
D|-----------------------------------------------------|
A|-333333333333-555555555555-7777777777777777777777777-|
E|-----------------------------------------------------| Play x3

G|-----------------------------------------------------|
D|-----------------------------------------------------|
A|-333333333333-555555555555-333333333333--------------|
E|----------------------------------------555555555555-|


 Second Chorus:
G|---------------------------------------------------------------|
D|---------------------------------------------------------------|
A|-7777777777777777777777777777777777----------------------------|
E|------------------------------------333333333333-5555555555555-|

G|---------------------------------------------------------------|
D|---------------------------------------------------------------|
A|-777777777777777777777777777777777-3333333333333---------------|
E|-------------------------------------------------5555555555555-|

G|-----------------------------------------------------|
D|-----------------------------------------------------|
A|-333333333333-555555555555-7777777777777777777777777-|
E|-----------------------------------------------------|
[ Tab from: http://www.guitartabs.cc/tabs/w/wasp/my_wicked_heart_btab.html ]
G|--------------------------------------------------|
D|--------------------------------------------------|
A|----------------333333-555555-7777777777777777777-|
E|-55555555555555-----------------------------------|

G|--------------------------------|
D|--------------------------------|
A|----------------333333-555555-7-| Hang before leading into solo.
E|-55555555555555-----------------|


 Solo:
G|-----------------------------------------------------|
D|-----------------------------------------------------|
A|-777777777777777777777777777777777777777777777777777-|
E|-----------------------------------------------------|

G|-----------------------------------------------------|
D|-----------------------------------------------------|
A|-33333333333-555555555555-77777777777777777777777777-|
E|-----------------------------------------------------| play x5

G|-----------------------------------------------------|
D|-----------------------------------------------------|
A|-777777777777777777777777777777777777777777777777777-|
E|-----------------------------------------------------|

G|-----------------------------------------------------|
D|-----------------------------------------------------|
A|-3333333333-5555555555------------121212121212121212-|
E|-----------------------5555555555--------------------|

G|------------------------------------------|
D|------------------------------------------|
A|-5-7--5-3-------5-7----5-7--5-3-------5-7-|
E|-----------3-5-------------------3-5------|
 
G|---------------------------------------------------------------|
D|---------------------------------------------------------------|
A|-5-77777-5-33333--------5-77777--5-77777-5-33333-------5-77777-|
E|----------------3-55555-------------------------3-55555--------|
 

 Final Chorus:
G|---------------------------------------------------------------|
D|---------------------------------------------------------------|
A|-7777777777777777777777777777777777----------------------------|
E|------------------------------------333333333333-5555555555555-|

G|---------------------------------------------------------------|
D|---------------------------------------------------------------|
A|-777777777777777777777777777777777-3333333333333---------------|
E|-------------------------------------------------5555555555555-|

G|-----------------------------------------------------|
D|-----------------------------------------------------|
A|-333333333333-555555555555-7777777777777777777777777-|
E|-----------------------------------------------------|

G|--------------------------------------------------|
D|--------------------------------------------------|
A|----------------333333-555555-7777777777777777777-|
E|-55555555555555-----------------------------------|

G|---------------------------------------------------------------|
D|---------------------------------------------------------------|
A|----------------333333-555555-7-777777777777777777(play out)777|
E|-55555555555555------------------------------------------------|


 Tab'd by Nyte
 Questions Comments or General Cursing 
 Email me at Nytethorn@aol.com
Comments