Wasp - Its A Long Way To The Top Chords & Tabs

 

Its A Long Way To The Top Chords & Tabs

Wasp Chords & Tabs

Version: 1 Type: Bass Tab 0 ratings
1 star 2 stars 3 stars 4 stars 5 stars
comments

Its A Long Way To The Top Bass Tab

   
 WASP "It's a Long Way to the Top"
 (AC-DC Cover)

 Tuning 1/2 step down

 Verse 1, 3, & Outro: 
G|-----------------------------------------------------|
D|-----------------------------------------------------|
A|-333333333333333333333333333333333333333333333333333-|
E|-----------------------------------------------------|

 Chorus:
G|------------------------------------------------------|
D|------------------------------------------------------|
A|-3-333-33-1-11----3-333333333-3-333-33-1-11-----3-333-|
E|--------------1-11-------------------------1-11-------|
[ Tab from: http://www.guitartabs.cc/tabs/w/wasp/its_a_long_way_to_the_top_btab.html ]
 Verse 2 & 4:
G|-----------------------------------------------------|
D|-----------------------------------------------------|
A|-3333333333333-------------1-11111-------3-333333333-|
E|--------------1-11111111111-------1-11111------------|
 
 Solo 1st half:
G|-----------------------------------------------------|
D|-----------------------------------------------------|
A|-333333333333333333333333333333333333333333333333333-|
E|-----------------------------------------------------|

 Solo 2nd half: (repeat 4 times)
G|--------------------------------------|
D|--------------------------------------|
A|-33333333-1-111111-----------33333333-|
E|-------------------1-1111111----------|

 That's basicaly it. It thumps HARD & HEAVY, so 
 play it loud!

 Tab'd by Nyte: (Nytethorn@aol.com)
 email with any questions comments or curses.
Comments