Wasp - Animal Fuck Like A Beast Chords & Tabs

 

Animal Fuck Like A Beast Chords & Tabs

Wasp Chords & Tabs

Version: 1 Type: Tab 0 ratings
1 star 2 stars 3 stars 4 stars 5 stars
comments

Animal Fuck Like A Beast Tab

   
Animal 

Tune down ½ step (one fret)



Intro/verse
Fig 1
   E              C   E          A   E          G   F# G  A   G  F#
e:------------------------------------------------------------------|
B:------------------------------------------------------------------|
G:----------------5--------------2----------------------------------|
D:-9--------------5--------------2--------------5---------7---------|
A:-7--------------3--------------0--------------5---4--5--7---5--4--|
E:-0---0-0-0-0-0------0-0-0-0-0------0-0-0-0-0--3---2--3--5---3--2--|
       P.M......      .........      .........
[ Tab from: http://www.guitartabs.cc/tabs/w/wasp/animal_fuck_like_a_beast_tab.html ]
Pre-chorus
Fig 2
   E              C   E          A   A E   A E   A
e:-------------------------------------------------|
B:-------------------------------------------------|
G:----------------5--------------2-----------------|
D:-2--------------5--------------2---2-----2-----2-|
A:-2--------------3--------------0---0-2-2-0-2-2-0-|
E:-0---0-0-0-0-0------0-0-0-0-0--------0-0---0-0---|

Chorus
Fig 3
   E		     G   D   A
e:-------------------------------|
B:-------------------------------|
G:-----------------------7---2---|
D:-------------------5---7---2---|
A:-2--2--2--2--2--2--5---5---0---|
E:-0--0--0--0--0--0--3-----------|

Play like this:
Intro: Fig 1 2x
Verse: Fig 1 3x
Pre-chorus: Fig 2
Chorus:Fig 3 4x
Verse: Fig 1 2x
Pre-chorus:Fig 2
Chorus: Fig 3 4x
Bridge:
During solo: Fig 3
Chorus: Fig 3 4x
 
Comments