Washya - Fluent Transcendence Chords & Tabs

 

Fluent Transcendence Chords & Tabs

Washya Chords & Tabs

Version: 1 Type: Tab 0 ratings
1 star 2 stars 3 stars 4 stars 5 stars
comments

Fluent Transcendence Tab

-----------------------------------------------------------------------------
                      Fluent Transcendence - Washya
-----------------------------------------------------------------------------
Tuning: Drop C (FADCGC)
Intro
F|---------------------------------------------------------------|
A|---------------------------------------------------------------|
D|---------------------------------------------------------------|
C|------7-----5-----3-------------6------8--8--8h10p8p6-----10\\-|
G|------5-----3-----1-1111/3333h4-4------6--6--6h10p8p6-----8-\\-|
C|-0000-5-55553-33331-------------4-4444/6666666--------88888-\\-|x8
PM ****   ****  ****  ***********   ****  ** **         **** 

Part 2
D|------------------------------------------13----15/17b-|
A|------------------------------12/15p14h15----15----17b-|
F|----9p7h9h10p9/11----11h13p11--------------------------|
C|-/9---------------12-----------------------------------|
G|-------------------------------------------------------|
C|-------------------------------------------------------|x2

Verses
D|----------------------------------------------------|
A|----------------------------------------------------|
F|--------------7---------7---------3-----------------|
C|----4h6---------3h5-------3h5-7-----7-6----5-1111-0-|
G|--------7-----------------------5----------3-1111-0-|
C|-00-------000-------000-----------------3333-1111-0-|
PM **       ***       ***                 ***  

Chorus
D|-------------------------------------------------------------------------|
A|-------------------------------------------------------------------------|
F|----------------------------------------------55555----------------------|
C|------10---7-9-9p6---9---9/12----121212\9---9-55555-5555\33333---------2-|
G|------8----5-7-----7---7------11p101010\7---9-33333-3333\11111-----1h2-0-|
C|-888888--885-7-------------------101010\77777-------3333\11111-1h3-----0-|
PM *****   **                              ***                   *** ***

Solo
D|----13----13----13----17b~~~~-17p14----14h17p14-------------------15-|
A|-12----12----12----13---------------15----------15p13p12----12h14----|
F|---------------------------------------------------------14----------|
C|---------------------------------------------------------------------|
G|---------------------------------------------------------------------|
C|---------------------------------------------------------------------|

D|-15h18p15h18p15h18p15----15-------15p14p12-12h14p12\10h12p10h12p10-|
A|----------------------16----16h17----------------------------------|
F|-------------------------------------------------------------------|
C|-------------------------------------------------------------------|
G|-------------------------------------------------------------------|
C|-------------------------------------------------------------------|
[ Tab from: http://www.guitartabs.cc/tabs/w/washya/fluent_transcendence_tab.html ]
D|----------------------------------------12p9h12p9----9h12p9h12p9----|
A|-12------12------12------8p7------9p8p7-----------10-------------10-|
F|----11p9----11p9----11p9-----10p7-----------------------------------|
C|--------------------------------------------------------------------|
G|--------------------------------------------------------------------|
C|--------------------------------------------------------------------|

D|-9h12p9h12p9-------11h14p11h14p11----11h14p11h14p11-------13h16p13-|
A|-------------10/12----------------12----------------12/14----------|
F|-------------------------------------------------------------------|
C|-------------------------------------------------------------------|
G|-------------------------------------------------------------------|
C|-------------------------------------------------------------------|

D|-16p13h16p13----13p16p13h16-------15h18p15h18p15----15h18p15h18p15-|
A|-------------14-------------14/16----------------16----------------|
F|-------------------------------------------------------------------|
C|-------------------------------------------------------------------|
G|-------------------------------------------------------------------|
C|-------------------------------------------------------------------|

D|-------17h20p17h20p17----17h20p17h20p17----20b-20b-20b~~~-|
A|-16/18----------------18----------------18-21b-21b-21b~~~-|
F|----------------------------------------------------------|
C|----------------------------------------------------------|
G|----------------------------------------------------------|
C|----------------------------------------------------------|

Tuning: Drop C (FADCGC)
Intro
F|---------------------------------------------------------------|
A|---------------------------------------------------------------|
D|---------------------------------------------------------------|
C|------7-----5-----3-------------6------8--8--8h10p8p6-----10\\-|
G|------5-----3-----1-1111/3333h4-4------6--6--6h10p8p6-----8-\\-|
C|-0000-5-55553-33331-------------4-4444/6666666--------88888-\\-|x8
PM ****   ****  ****  ***********   ****  ** **         **** 

Part 2
D|------------------------------------------13----15/17b-|
A|------------------------------12/15p14h15----15----17b-|
F|----9p7h9h10p9/11----11h13p11--------------------------|
C|-/9---------------12-----------------------------------|
G|-------------------------------------------------------|
C|-------------------------------------------------------|x2

Verses
D|----------------------------------------------------|
A|----------------------------------------------------|
F|--------------7---------7---------3-----------------|
C|----4h6---------3h5-------3h5-7-----7-6----5-1111-0-|
G|--------7-----------------------5----------3-1111-0-|
C|-00-------000-------000-----------------3333-1111-0-|
PM **       ***       ***                 ***  

Chorus
D|-------------------------------------------------------------------------|
A|-------------------------------------------------------------------------|
F|----------------------------------------------55555----------------------|
C|------10---7-9-9p6---9---9/12----121212\9---9-55555-5555\33333---------2-|
G|------8----5-7-----7---7------11p101010\7---9-33333-3333\11111-----1h2-0-|
C|-888888--885-7-------------------101010\77777-------3333\11111-1h3-----0-|
PM *****   **                              ***                   *** ***
Comments