Washya - Final Frontier Chords & Tabs

 

Final Frontier Chords & Tabs

Washya Chords & Tabs

Version: 1 Type: Tab

Final Frontier Tab

----------------------------------------------------------------------------
			     Final Frontier - Washya
----------------------------------------------------------------------------
Tabbed by:  Josh
Email: washya_boat@hotmail.com

Tuning: Drop C (DAFCGC)
VERY HEAVY INTRO

D|------------------------------------|
A|-----------------------------9-11~--|
F|-------------------------7-8--------|
C|-2-5-6p5h6-3-5-2-2-2-5-6------------|
G|-2-5-6p5h6-3-5-2-2-2----------------|
C|-2-5-6p5h6-3-5-2-2-2----------------|

Verses
D|---------0---------------------------------------9~---|
A|-------3---3---------------------------------5-7------|
F|-----4-------4-------------7-9-7-----------3----------|
C|---2-----------2-------5-7-------5-3-----0------------|
G|-0---------------0---3---------------2----------------|
C|-------------------0-------------------0--------------|

Interlude
Pre Solo
D|-----------------------------------------------------------------|
A|-----------------------------------------------------------------|
F|--------------------7-9-7----------------------------------------|
C|----------------3-5-------9---------------6-7-8-9----------------|
G|-9-9~-7-5-3-2-1-------------7-9-8-6-5-3-4---------7-------5-5h6~-|
C|----------------------------------------------------6-5-4--------|

Guitar Solo.
D|----------------------------------------------------|
A|------------------------------8/9-8-6---6---6-8-----|
F|-----7/9-7-5---5---5-7------6---------8---8-----6~--|
C|---5---------7---7-----5~-4-------------------------|
G|-3--------------------------------------------------|
C|----------------------------------------------------|

[ Tab from: http://www.guitartabs.cc/tabs/w/washya/final_frontier_tab.html ]
D|------12/13-12-10----10----10-12-------------------|
A|---10-------------12----12-------10~-10-10~~-------|
F|-8-------------------------------------------------|
C|---------------------------------------------------|
G|---------------------------------------------------|
C|---------------------------------------------------|


D|-------13----------13----------13----------13h15h17p15p13--|
A|-10-12----12-10-12----12-10-12----12-10-12-----------------|
F|-----------------------------------------------------------|
C|-----------------------------------------------------------|
G|-----------------------------------------------------------|
C|-----------------------------------------------------------|


D|-13~-21-22-21-19-17-15-13-12-10-------------------------15-17-|
A|--------------------------------9-8-7---7---7-7-9-11-13-------|
F|--------------------------------------5---5-------------------|
C|--------------------------------------------------------------|
G|--------------------------------------------------------------|
C|--------------------------------------------------------------|


D|-17h20-16h17-14h16-16-13h14h16-15----------------------------14-12-10----|
A|----------------------------------14-12-10----------14-12-10-------------|
F|-------------------------------------------14-12-10----------------------|
C|-------------------------------------------------------------------------|
G|-------------------------------------------------------------------------|
C|-------------------------------------------------------------------------|


D|-10p8p7h9-12p7h10p7---12p7h10p7-------------------------------------------|
A|--------------------9-----------9-7---------2-3---------2-----------------|
F|------------------------------------9-7-6-4-----3-2-2-0---0-2------2~-----|
C|--------------------------------------------------------------2--0--------|
G|--------------------------------------------------------------------------|
C|--------------------------------------------------------------------------|