Washboards - Lost My Cornbag Chords & Tabs

 

Lost My Cornbag Chords & Tabs

Washboards Chords & Tabs

Version: 1 Type: Bass Tab 0 ratings
1 star 2 stars 3 stars 4 stars 5 stars
comments

Lost My Cornbag Bass Tab

     Song: Lost My Cornbag
     Band: The Washboards
    Album: Lambastics
Tabbed By: Craig G Telfer

Here are the riffs you need to play this excellent ballad:-

  RIFF ONE
G|--------------------------------|--------------------------------|
D|--------------------------------|--------------------------------|
A|-4-0-4-0-4-0-4-0-4-0-4-0-4-0-4-5|-4-0-4-0-4-0-4-0-4-0-4-0-4-0-4-5|
E|--------------------------------|--------------------------------|

G|--------------------------------|--------------------------------|
D|-4-0-4-0-4-0-4-0-4-0-4-0-4-0-4-5|-4-0-4-0-4-0-4-0-4-0-4-0-4-0-4-5|
A|--------------------------------|--------------------------------|
E|--------------------------------|--------------------------------|


  RIFF TWO
G|-------------------------|-------------------------|
D|-------------------------|---------7---7---5-5-5-5-|
A|-5---5-------------------|-5---5-------------------|
E|---------5---5---3-3-3-3-|-------------------------|


[ Tab from: http://www.guitartabs.cc/tabs/w/washboards/lost_my_cornbag_btab.html ]
		RIFF THREE
G|---------|---------|---------|---------|
D|---------|---------|---------|---------|
A|---------|-7-7-7-7-|-5-5-5-5-|-4-5-----|
E|-5-5-5-5-|---------|---------|-----3-5-|



  RIFF FOUR
G|-----------------|-----------------|-----------------|-----------------|
D|-----------------|-----------------|-----------------|-----------------|
A|-3-3-3-3-3-3-3-5-|---------------5-|-3-3-3-3-3-3-3-5-|---------------5-|
E|-----------------|-3-3-3-3-3-3-3---|-----------------|-3-3-3-3-3-3-3---|

G|-----------------|-----------------|-----------------|-----------------|
D|-----------------|-----------------|-----------------|-----------------|
A|-3-3-3-3-3-3-3-5-|---------------5-|---------------5-|---------------5-|
E|-----------------|-3-3-3-3-3-3-3---|-5-5-5-5-5-5-5---|-5-5-5-5-5-5-5---|


Now here are those bitCHin' riffs in order:
    RIFF ONE: x1
    RIFF TWO: x2
  RIFF THREE: x4
   RIFF FOUR: x1
    RIFF TWO: x2
  RIFF THREE: x4
   RIFF FOUR: x1
    RIFF ONE: x1
    RIFF TWO: x2
  RIFF THREE: x4
   RIFF FOUR: x1
    RIFF TWO: To Fade

A very very good song, if not a little repitive.

If anyone out there has any suugestions, comments, questions or knows how 
the west was won and where it got us, e-mail me at charlatan_3@hoatmail.com

Thank you, my kind sparrow

Craig G Telfer

Comments