Washboards - Judy Jnr Chords & Tabs

 

Judy Jnr Chords & Tabs

Washboards Chords & Tabs

Version: 1 Type: Bass Tab 0 ratings
1 star 2 stars 3 stars 4 stars 5 stars
comments

Judy Jnr Bass Tab

   
     Song: Judy Jnr
     Band: The Washboards
    Album: Lambastics
Tabbed By: Craig G Telfer

Possibly the best pop song of all time, in all it's tabbed out glory:-


  RIFF ONE
G|-------------------|
D|------------5------|
A|-5----7----------5-|
E|-------------------|


  RIFF TWO
G|--------------------------------------------------------|
D|---------------------------------5-5-5-5-5--------------|
A|-5-5-5-5-5-------7-7-7-7-7-----------------------5----5-|
E|-----------5-6-7-----------5-6-7-----------5-6-7--------|

[ Tab from: http://www.guitartabs.cc/tabs/w/washboards/judy_jnr_btab.html ]
  RIFF THREE
G|-----------------------------------------------------------------|
D|-----------------------------------------------------------------|
A|-----------------------------------------------------------------|
E|-5-5-5-4-3-3-3-4-5-5-5-4-3-3-3-4-5-5-5-4-3-3-3-4-5-5-5-4-3-3-3-4-|


  RIFF FOUR
G|---------------------------------|
D|---------------------------------|
A|-------------------------5-5-5-5-|
E|-5-5-5-5-0-0-0-0-3-3-3-3---------|


Here is the order that the riffs come in:-
		  RIFF ONE: x1
		  RIFF TWO: x4
		RIFF THREE: x1
		  RIFF TWO: x4
		RIFF THREE: x1
		 RIFF FOUR: x8
		RIFF THREE: x2

If you have any comments, questions or serving suggestions e-mail me at 
charlatan_3@hotmail.com.

Thank you very much

Craig G Telfer

Comments