Warrant - Cherry Pie Chords & Tabs

 

Cherry Pie Chords & Tabs

Warrant Chords & Tabs

Version: 2 Type: Tab 0 ratings
1 star 2 stars 3 stars 4 stars 5 stars
comments

Cherry Pie Tab

   
"Cherry Pie" by Warrant
Tabbed by: DxL - MelvinTheLlama@aol.com - AIM: dxlogan187 - MSN: dxlogan316@hotmail.com

This was requested in the tab request forums. You people need to 
request some more popular songs! It's hard finding the ones you guys
request, so if you're reading this, make a note of that. Thanks.

     Pre - Chorus

     A5   C5   D5          F5          G5                            
E||---------------------|--------------------------|----------------|
B||---------------------|--------------------------|----------------|
G||--2----5----7--------|--------------------------|----------------|
D||--2----5----7--------|--3-3-3-3-----5-5-5-5-----|----------------|
A||--0----3----5--------|--3-3-3-3-----5-5-5-5-----|--4-5-4---------|
E||---------------------|--1-1-1-1-----3-3-3-3-----|--------5-3-----|

  Chorus

  E5        G5           A5        C5   D5      E5        G5         
----------------------|----------------------|----------------------|
----------------------|----------------------|----------------------|
----------------------|--2--2------5----7----|----------------------|
--2--2------5--5------|--2--2------5----7----|--2--2------5--5------|
--2--2------5--5------|--0--0------3----5----|--2--2------5--5------|
--0--0------3--3------|----------------------|--0--0------3--3------|
[ Tab from: http://www.guitartabs.cc/tabs/w/warrant/cherry_pie_tab_ver_2.html ]
                         Main Riff   
  G5    D5    A5                                       
-----------------------|-------------------------------|
-----------------------|-------------------------------|
--------7--------------|-------------------------------|
--5-x---7-x---7--------|-------------------------------|
--5-x---5-x---7--------|----7----5-----4---5-----------|
--3-x-----x---5--------|--0----0-----0---0---5---------|


                    G5A5A5                                  
---------------------------|-------------------------------|
---------------------------|-------------------------------|
---------------------------|-------------------------------|
--------------------5---7--|-------------------------------|
----7----5----5-4---5---7--|----7----5-----4---5-----------|
--0----0----0-----5-3---5--|--0----0-----0---0---5---------|

                                    Verse
          
                     G5 A5          E5           E5      E5       D5   A5    
---------------------------------|--------------------|---------------------|
---------------------------------|---------------5----|-----------3---------|
---------------------------------|---------------4----|-----------2----2----|
---------------------5--7--------|--2------------2----|--2--------0----2----|
----7----5-----5-4---5--7--------|--2-----------------|--2-------------0----|
--0----0-----0-----5-3--5--------|--0-----------------|--0------------------|


  E5                        E5       D5   A5     
-------------------------|---------------------||
-------------------------|-----------3---------||
-------------------------|-----------2----2----||
--2------------------5p2-|--2--------0----2----||
--2--------0-2p0-5p2-----|--2-------------0----||
--0----------------------|--0------------------||



Comments