Warrant - Cherry Pie Chords & Tabs

 

Cherry Pie Chords & Tabs

Warrant Chords & Tabs

Version: 1 Type: Tab 0 ratings
1 star 2 stars 3 stars 4 stars 5 stars
comments

Cherry Pie Tab

   
WARRANT
Cherry pie
 
Intro:             
              A5      C5      D5                F5
E---------|-----------------------------------|---------------------|
B---------|-----------------------------------|---------------------|
G---------|----2-------5-------7--------------|---------------------|
D---------|----2-------5-------7--------------|---3---3---3---3-----|
A-----12\-|----0-------3-------5--------------|---3---3---3---3-----|
E---------|-----------------------------------|---1---1---1---1-----|

   F5                 G5                        
E--------------------------------------------|
B--------------------------------------------|
G--------------------------------------------|
D---5---5---5---5----------------------------|
A---5---5---5---5----------5---4---3---------|
E---3---3---3---3------0---------------3-----|


Chorus: 0:06
    E5         G5            A5            Cadd9 D5      E5
E-------------------------|----------------------------|------------|
B---------------3---3-----|-------------------3---3----|------------|
G---------------0---0-----|---2---2---2-------0---2----|------------|
D---2---2-------0---0-----|---2---2---2-------2---0----|---2---2----|
A---2---2-----------------|---0---0---0-------3--------|---2---2----|
E---0---0-------3---3-----|----------------------------|---0---0----|

   G5                          D5    A5    
E----------------------|-----------------------|
B---3---3---3-----3----|---3----3--------------|
G---0---0---0-----0----|---0----2-----2--------|
D---0---0---0-----0----|---0----0-----2--------|
A----------------------|--------------0--------|
E---3---3---3-----3----|---3----------------0--|
The majority of this is straight and on-the-beat powerchords.


Breakdown: 0:17
   E5      pm-------|  ^ ^ ^ ^         x3           pm-------| ^ ^ ^ ^     G5  A5
E----------------------------------------|----------------------------------------|
B----------------------------------------|----------------------------------------|
G----------------------------------------|----------------------------------------|
D----------------------------------------|----------------------------------------|
A-------7-----------5-------4-------5p0--|-------7-----------5-------5p4----5---7-|
E---0-------0---0-------0-------0--------|---0-------0---0-------0--------7-3---5-|


Verse: 0:28

   E5                            D5     A5      E5
E------------------|--------------------------|----------------------------------|
B------------------|--------------3-----------|----------------------------------|
G------------------|--------------2------2----|-----------2\----------------0----|
D---2---2----------|---2---2------0------2----|---2---2----------------2p0-----2-|
A---2---2----------|---2---2-------------0----|---2---2--------0--2p0------------|
E---0---0----------|---0---0------------------|---0---0--------------------------|

         E5         D5     A5
E--------------------------|
B--------------3-----------|
G--------------2------2----|
D---2---2------0------2----|
A---2---2-------------0----|
E---0---0------------------|


   E5      pm-------|  ^ ^ ^ ^ ^        x3          pm-------| ^ ^ ^ ^     G5  A5
E----------------------------------------|----------------------------------------|
B----------------------------------------|----------------------------------------|
G----------------------------------------|----------------------------------------|
D----------------------------------------|----------------------------------------|
A-------7-----------5-------4-------5p0--|-------7-----------5-------5p4----5---7-|
E---0-------0---0-------0-------0--------|---0-------0---0-------0--------7-3---5-|

   E5              ^^^^              D5     A5       E5
E---------------------|--------------------------|--------------------------------|      
B---------------------|--------------3-----------|--------------------------------|
G---------------------|--------------2------2----|-----------2\--------------0----|
D---2---2--------9----|---2---2------0------2----|---2---2--------------2p0-----2-|
A---2---2--------7----|---2---2-------------0----|---2---2-------0-2p0------------|
E---0---0-------------|---0---0------------------|---0---0------------------------|

[ Tab from: http://www.guitartabs.cc/tabs/w/warrant/cherry_pie_tab.html ]
    E5         D5     A5     A5     C5     D5      F5              G5
E-------------------------|--------------------- |--------------------------------- |
B--------------3----------|--------------------- |--------------------------------- |
G--------------2------2---|---2------5------7--- |--------------------------------- |
D---2---2------0------2---|---2------5------7--- |--------------------------------- |
A---2---2-------------0---|---0------3------5--- |---3---3---3---3---5---5---5---5- |
E---0---0-----------------|--------------------- |---1---1---1---1---3---3---3---3- |
This combines the chorus powerchords with the funky breakdown.


Chorus: 1:00


    E5         G5            A5            Cadd9 D5       E5
E-------------------------|----------------------------|------------|
B---------------3---3-----|-------------------3---3----|------------|
G---------------0---0-----|---2---2---2-------0---2----|------------|
D---2---2-------0---0-----|---2---2---2-------2---0----|---2---2----|
A---2---2-----------------|---0---0---0-------3--------|---2---2----|
E---0---0-------3---3-----|----------------------------|---0---0----|

    G5                          D5  A5                       G5   D5   A5
E--------------------|-----------------------------------|----------------|
B---3---3--------3---|---3------3------------------------|---3----3-------|
G---0---0--------0---|---0------2---2--------------------|---0----2----2--|
D---0---0--------0---|---0------0---2------5----5--------|---0----0----2--|
A--------------------|--------------0----------------7---|-------------0--|
E---3---3--------3---|---3-------------------------------|---3------------|


Solo: 2:04

    B5                                            ph--------------------|
E-------------------------------------------11------------|
B----9/10---10\9----10-----9/10------9/10---10----10^(12)-|
G---10/11---11\10---11----10/11-----10/11---11------------|
D---------------------------------------------------------|
A---------------------------------------------------------|
E---------------------------------------------------------|

                   A5     G#5
E------------------------------|
B---10-9-10-9-10-9--------10---|
G------------------9^(11)------|
D------------------------------|
A------------------------------|
E------------------------------|

    B5
E---------------------------------------------------------|
B---10----------------------------------------------------|
G------9^(11)-(9)-7----9-----7--9-(11)^-(9)p7-------9-7---|
D-------------------9-----9--------------------9-9--------|
A---------------------------------------------------------|
E---------------------------------------------------------|

                            A5   G#5   A5
E--------------------------------------|----------------------------20^(22)-20^(22)-|
B--9^(11)-(9)p7-----9-7-------/9\--/9--|--20^(22)-20^(22)v-17----17-----------------|
G----------------9-------9-7-----------|----------------------19--------------------|
D--------------------------------------|--------------------------------------------|
A--------------------------------------|--------------------------------------------|
E--------------------------------------|--------------------------------------------|

                                                         D5     C5
E-17-20p19-17-17-19p17-------------------------------------------------------|
B----------------------20-17-20-19-17-20/22/20-19-17----17-------------------|
G----------------------------------------------------19----19-19^(21)-17\\\--|
D----------------------------------------------------------------------------|
A----------------------------------------------------------------------------|
E----------------------------------------------------------------------------|

    A5
E-----------5---------------------------------------|
B---------5---5-8^(10)-(8)--------------------------|
G---7^(9)-------------------7^(9)-(7)p5---7---5p0-5-|
D---------------------------------------7---7-------|
A---------------------------------------------------|
E---------------------------------------------------|

                              C5       D5
E-----------------------------20^(22)-(20)--|
B-----------------------16-17---------------|
G-------------11-14-17----------------------|
D-----7-10-12-------------------------------|
A---9---------------------------------------|
E-------------------------------------------|
Use richer and thicker distortion here so you can make the guitar scream.
Lastly remember to rip into a first string bend at the 22nd fret after the last
transcribed bar. Smoking!!!!

Transcribed by: Paolo "honey" Quintana & Karlo "2222" T. Quintana
We want a complete guitar transcription of "Your all I need" song by Whitelion.
Those who have it, just send via email at paolo_keno@yahoo.com. For exchange, I
can send you another Warrant song. For suggestions and request, email me at 
paolo_keno@yahoo.com. 


























Comments