Warrant - Blind Faith Chords & Tabs

 

Blind Faith Chords & Tabs

Warrant Chords & Tabs

Version: 1 Type: Tab 0 ratings
1 star 2 stars 3 stars 4 stars 5 stars
comments

Blind Faith Tab

   
  Blind Faith- Warrant

  Transcribed by: Cory Weir - weir_cory1@rock.com
 
  Intro:


  Em		      C9             G              D/F#     D      Dsus4

 |------0------------------0------------3-----------------2-------3---------|
 |---------0------------------3-----------3-------------------3-------------|
 |------------0---------0-------------0-----0----------2--------------------|
 |----2-----------2----2-------------0---------0-----0----------------------|
 |---2--------------3-------------------------------------------------------|
 |-0------------------------------3--------------2--------------------------|


   Em                   C9             G        D/F#            D

 |--------0-------------------0------------------------------2--------------|
 |----------0--------------------3---------------------------3--------------|
 |------------0-----------0--------------------------0-------2--------------|
 |-----2----------2-----2-----------------0--------0------------------------|
 |---2---------------3-----------------2--------0---------------------------|
 |-0---------------------------------3--------2-----------------------------|


  Reapeat the first half of the intro for each verse.

  Chorus: G D C9 D
  Verse: Em C9 G D/F#
  Bridge: C9 G D


  Solo:

[ Tab from: http://www.guitartabs.cc/tabs/w/warrant/blind_faith_tab.html ]
 |--12-10--------12-10----10----------------------------------|
 |-------12-10h12-----------10h12p10--------10b12r10-8--------|
 |-----------------------------------12-9-9------------11-----|
 |-------------------------------------------------------12-12|
 |------------------------------------------------------------|
 |------------------------------------------------------------|

 |------------------------------------------------------------|
 |---------------------------------12b15-12p10----10b12p12r10-|
 |---------------------------------------------12-------------|
 |--9-9-9h12-9----9----------7h9-7----------------------------|
 |-------------12---12-10h12----------------------------------|
 |------------------------------------------------------------|

 |--------------------10-------12--15b17r15-17b19p17-15-17p15-|
 |--8h10p8---12-10-------12-10--------------------------------|
 |---------9-------12-----------------------------------------|
 |------------------------------------------------------------|
 |------------------------------------------------------------|
 |------------------------------------------------------------|

 |--12h15-10-10/8-8-10b12r10----------------------------------|
 |------------------------------------------------------------|
 |------------------------------------------------------------|
 |------------------------------------------------------------|
 |------------------------------------------------------------|
 |------------------------------------------------------------|

 Solo is 100% accurate, you just need to figure out the timing. 
 My transcription may be a little confusing, but just listen
 to the song and you'll figure it out.
Comments