Warpaint - Elephants Chords & Tabs

 

Elephants Chords & Tabs

Warpaint Chords & Tabs

Version: 2 Type: Bass Tab

Elephants Bass Tab

complete bassline


7x
G|---------------------------|
D|-------6-------------------| 
A|-------------4---0---0-----|
E|-----4----4----4---4-------|


1x
G|---------------------------|
D|---------------------------|
A|---------------------------|
E|----4-----4-----4-----4----|


40x
G|---------------------------|
D|-------6-------------------| 
A|-------------4---0---0-----|
E|-----4----4----4---4-------|


4x
G|------6--------6-----------|
D|-----------4-------0-------|
A|----4---4----4---4---------|
E|---------------------------|


4x
G|------6--------------------|
D|-----------4---0---0-------|
A|----4---4----4---4---------|
E|---------------------------|

[ Tab from: http://www.guitartabs.cc/tabs/w/warpaint/elephants_btab_ver_2.html ]
8x
G|---------------------------|
D|-------6-------------------| 
A|-------------4---0---0-----|
E|-----4----4----4---4-------|


8x
G|------6--------6-----------|
D|-----------4-------0-------|
A|----4---4----4---4---------|
E|---------------------------|


16x
G|-------------4-------------| 
D|-----------------0---0-----|
A|-----4----4----4---4-------|
E|---------------------------|


6x
G|--------6------------------|
D|-----------4---------------| 
A|----4----4----------5------|
E|-----------------5---------|


2x
G|-----------------------|
D|-----------------------| 
A|------4---4------------|
E|------------5----5-----|


8x
G|------6--------6-----------|
D|-----------4-------0-------|
A|----4---4----4---4---------|
E|---------------------------|