Warlord - Lost And Lonely Days Chords & Tabs

 

Lost And Lonely Days Chords & Tabs

Warlord Chords & Tabs

Version: 1 Type: Tab 0 ratings
1 star 2 stars 3 stars 4 stars 5 stars
comments

Lost And Lonely Days Tab

   
LOST AND LONELY DAYS (Warlord) 

Tabbed by Spyros Soldatos lordovol@mailbox.gr 
Homepage http://www.geocities.com/SunsetStrip/Frontrow/8281/
If you have anything that has to do with warlord email me

  Intro.....................................................................
               D5               Bb5              C5           A5
e:---------||-----------------|----------------|-----------|---------------|
B:---------||o----------------|----------------|-----------|---------------|
G:----7--9-||--10--10--7h9-7--|----------------|-----------|---------7--9--|
D:7--------||-----------------|--8--8----------|-----------|-------7-------|
A:---------||o----------------|---------10--5--|--3-----1--|--0------------|
E:---------||-----------------|----------------|-----------|---------------|
                                            


                                          |1st time....|2nd time...
  ........................................|............|...........
    D5              Bb5             C5    |  D5        |   D5
e:----------------|--------------|--------|------------||----------|
B:----------------|--------------|--------|-----------o||----------|
G:--10--10--7h9-7-|-----------7--|------9-|--7----7-9--||--7-------|
D:----------------|-8--8---------|--10----|-----7------||----------|
A:----------------|-------10-----|--------|-----------o||-------0--|
E:----------------|--------------|--------|------------||----------|
                                                                She


   Rh.Fig.1 .....................................................
      F5          E5      G5   F5  E5    F5                   E5
e:||-----------------|-------------------------|-----------------|
B:||o----------------|-------------------------|-----------------|
G:||--10---10-10--9--|---12----10--9----10--10-|--10--10-10---9--|
D:||--10---10-10--9--|---12----10--9----10--10-|--10--10-10---9--|
A:||o-8----8--8---7--|---10----8---7----8---8--|--8---8--8----7--|
E:||-----------------|-------------------------|-----------------|
     came to me   I    thought I found her the   girl of all my
    laughed we cried     side by side      the summers turned to

  ..........................................................................
    D5       A5         F5         E5     G5 F5  E5    F5     C5      Bb5
e:--------------------|---------------|--------------------|----------------|
B:--------------------|---------------|--------------------|----------------|
G:--7-----------------|-10-10---10-9--|--12--10--9-----10--|--5--------3----|
D:--7-----------------|-10-10---10-9--|--12--10--9-----10--|--5--------3----|
A:--5----5-5-0-0-0-0--|-8--8----8--7--|--10--8---7-----8---|--3--------1----|
E:--------------------|---------------|--------------------|----------------|
         P.M........
  dreams           And  until then I    did not know what    happiness could
  years            But winter came the skies were grayed from happiness to 

 ................
     A5          
e:-------------||
B:------------o||
G:---2---------||
D:---2---------||
A:---0--------o||
E:-------------||
   bring   We      
   tears

 Repeat Intro once

 Repeat Rh.Fig.1 /w. Verse 2

    Rh.Fig.2 ............................................
       G5               C5            F5
e:||-----------------|-------------|--------------------|
B:||o----------------|-------------|--------------------|
G:||-----------------|--5----------|--10----------------|
D:||---5-------------|--5----------|--10----------------|
A:||o--5-------------|--3----------|--8-----------------|
E:||---3-------------|-------------|--------------------|
          Why did she   go away and  leave me with the
          If I could   tell her so I'd tell her that I 
[ Tab from: http://www.guitartabs.cc/tabs/w/warlord/lost_and_lonely_days_tab.html ]
 .............|..........................................................
              |  1st time................................................
    D5        |  G5               C5                  D5
e:------------|----------------|-------------------|-----------|---------||
B:------------|----------------|-------------------|-----------|--------o||
G:--7---------|----------------|--5----------------|--7--------|-(7)-----||
D:--7---------|--5-------------|--5----------------|--7--------|-(7)-----||
A:--5---------|--5-------------|--3----------------|--5--------|-(5)----o||
E:------------|--3-------------|-------------------|-----------|---------||
   heartache      why did she    leave me with the   pain
   love her


  |................................................... 
  |2nd time........................................... 
  |C5                Bb5                  A5          
e:----------------|-------------------|--------------|
B:----------------|-------------------|--------------|
G:-5--------------|--3----------------|---2----------|
D:-5--------------|--3----------------|---2----------|
A:-3--------------|--1----------------|---0----------|
E:----------------|-------------------|--------------|
      and all my    dreams have gone    away   these  


 Rh.Fig.3.............
    G5   F5   E5  G5       D5       C5    D5       A5    D5      C5      D5
e:||--------------------|--------------|--------------|---------------||------|
B:||o-------------------|--------------|--------------|--------------o||------|
G:||--12---10---9---12--|--7---7-7--5--|--7---7-7--2--|--7--7-7--5----||-7----|
D:||--12---10---9---12--|--7---7-7--5--|--7---7-7--2--|--7--7-7--5----||-7----|
A:||o-10---8----7---10--|--5---5-5--3--|--5---5-5--0--|--5--5-5--3---o||-5----|
E:||--------------------|--------------|--------------|---------------||------|
   lost and lonely  days
  

Tryin to transcribe the solos of the Greatest guitarist in the World would
be sacrilege. So I leave them in peace and continue with the rest of the song.

   Rh.Fig.3 ..........................................
e:|----------------|-----------------|----------------|
B:|----------------|-----------------|----------------|
G:|----------------|-10----10--10-9--|--12--10-9--10--|
D:|---7---7---7----|-----------------|----------------|
A:|----------------|-----------------|----------------|
E:|----------------|-----------------|----------------|
      If you could   feel the way I    feel about you

  ..............................................................
e:----------------------|--------------------|-----------------|
B:----------------------|--------------------|-----------------|
G:---10---10--10----9---|--7-----7---7--7----|--10--10--10-9---|
D:----------------------|--------------------|-----------------|
A:----------------------|--------------------|-----------------|
E:----------------------|--------------------|-----------------|
    hear the things I     say    If you can    see the way I

  ...........................................................
e:------------------------|------------------|--------------|
B:------------------------|------------------|--------------|
G:--12-10-9----10---------|--9--------9--7---|--6----7---9--|
D:------------------------|------------------|--------------|
A:------------------------|------------------|--------------|
E:------------------------|------------------|--------------|
    am without you these    lost and lonely    days lonely   


Repeat Rh.Fig.3 /w. chorus till the end.

Lyrics:

Verse 1:  She came to me I thought I found her the girl of all my dreams
          And until then I did not know what happiness could bring
          We laughed we cried side by side the summers turned to years
          But winter came the skies were grayed from happiness to tears

Verse 2:  She said that she would never leave me never let me go
          But now she left me with this feeling so sad and so alone
          She went away I tried to find her I cried aloud her name
          I realized that it was good bye the heartache and the pain
       

Bridge:   Why did she go away and leave me with the heartache?
          Why did she leave me with the pain?
          If I could tell her so I'd tell her that I love her
          And all my dreams have gone away these  
          

Chorus:   Lost and lonely days, lost and lonely days...
           


Verse 3:  If you could feel the way I feel about you
          Hear the things I say
          If you can see the way I am without you these  

Chorus:   Lost and lonely days lonely days...
Comments