Warlord - Child Of The Damned Chords & Tabs

 

Child Of The Damned Chords & Tabs

Warlord Chords & Tabs

Version: 1 Type: Tab 0 ratings
1 star 2 stars 3 stars 4 stars 5 stars
comments

Child Of The Damned Tab

   
CHILD OF THE DAMNED (Warlord)

Tabbed by Spyros Soldatos lordovol@mailbox.gr 
Homepage http://www.geocities.com/SunsetStrip/Frontrow/8281/
If you have anything that has to do with warlord please email me

Intro ................................................................
  E5                                                   drums fill
|-----------------|-----------------|-----------------|---------------|
|-----------------|-----------------|-----------------|---------------|
|-----------2-----|-----------2-----|-----------2-----|---------------|
|-2-5-4h5p4---5-4-|-2-5-4h5p4---4-5-|-2-5-4h5p4---5-4-|---------------|
|-----------------|-----------------|-----------------|---------------|
|-----------------|-----------------|-----------------|---------------|

Rh.Fig.1..............................................................
  E5
|-----------------|-----------------|-----------------|---------------|
|-----------------|-----------------|-----------------|---------------|
|-----------2-----|-----------2-----|-----------2-----|---------2-----|
|-2-5-4h5p4---5-4-|-2-5-4h5p4---4-5-|-2-5-4h5p4---5-4-|---5-4-5---5-4-|
|-----------------|-----------------|-----------------|---------------|
|-----------------|-----------------|-----------------|---------------|
				                                  You

 Rh.Fig.2..................................................
  E5             
||-------------------------------|------------------------|
||*------------------------------|------------------------|
||--9----------------------------|-(9)--------------------|
||--9----------------------------|-(9)--------------------|
||*-7----------------------------|-(7)--------------------|
||-------------------------------|------------------------|
    made me see right past myself through beyond my fears
    I'm so geared unto them   I    serve unto their souls

..............................................
   G5                  D5
|--------------------|-----------------------|
|--------------------|-----------------------|
|--12----------------|-7---------------------|
|--12----------------|-7---------------------|
|--10----------------|-5---------------------|
|--------------------|-----------------------|
 Realize I'm synchronized, far beyond my 
 Now that I'm addicted  my hunger only 

Rh.Fig.1..............................................................
  E5
|-----------------|-----------------|-----------------|----------------||
|-----------------|-----------------|-----------------|---------------*||
|-----------2-----|-----------2-----|-----------2-----|---------2------||
|-2-5-4h5p4---5-4-|-2-5-4h5p4---4-5-|-2-5-4h5p4---5-4-|---5-4-5---5-4--||
|-----------------|-----------------|-----------------|---------------*||
|-----------------|-----------------|-----------------|----------------||
 years.
 grows. 

 Chorus:....................................................
  E5                            G5                 F#5    E5
|-----------------------------|-----------------------------|
|-----------------------------|-----------------------------|
|-9---------------------------|-12-----------------11-----9-|
|-9---------------------------|-12-----------------11-----9-|
|-7---------------------------|-10------------------9-----7-|
|-----------------------------|-----------------------------|
  I'm the child of the damned I follow where I go

.........................................
  D5                     G5  F#5   D5 C#5  
|---------------------|---------|--------|
|---------------------|---------|--------|
|-7-------------------|--12--11-|--7--6--|
|-7-------------------|--12--11-|--7--6--|
|-5-------------------|--10---9-|--5--4--|
|---------------------|---------|--------|
 Rigging to the cross as ho- ly    as  a

..............................................
  E5
|-----------------|--------------------------|
|-----------------|--------------------------|
|-----------2-----|--------------2-----------|
|-2-5-4h5p4---5-4-|---5---4---5-------5----4-|
|-----------------|--------------------------|
|-----------------|--------------------------|
  whore              I'm just a child of the

..............................................
  E5
|-----------------|--------------------------|
|-----------------|--------------------------|
|-----------2-----|--------------2-----------|
|-2-5-4h5p4---5-4-|---5---4---5-------5----4-|
|-----------------|--------------------------|
|-----------------|--------------------------|
                     I'm just a child 

Rh.Fig.1..............................................................
  E5
|-----------------|-------------2-3-|-----------------|---------------|
|-----------------|-----------------|-----------------|---------------|
|-----------2-----|-----------2-----|-----------2-----|---------2-----|
|-2-5-4h5p4---5-4-|-2-5-4h5p4-------|-2-5-4h5p4---5-4-|---5-4-5---5-4-|
|-----------------|-----------------|-----------------|---------------|
|-----------------|-----------------|-----------------|---------------|


Rh.Fig.2..................................................
  E5             
||-------------------------------|------------------------|
||*------------------------------|------------------------|
||--9----------------------------|-(9)--------------------|
||--9----------------------------|-(9)--------------------|
||*-7----------------------------|-(7)--------------------|
||-------------------------------|------------------------|
    Witches coven time has come for those sabbatical years
    Prophets slayed mankind arrayed into a mass submission

..........................................................
   G5                          D5
|----------------------------|----------------------------|
|----------------------------|----------------------------|
|--12------------------------|-7--------------------------|
|--12------------------------|-7--------------------------|
|--10------------------------|-5--------------------------|
|----------------------------|----------------------------|
Revelation is the message         for all the world to
Evil's here the lord of hell      give you the proposition


Rh.Fig.1..............................................................
  E5
|-----------------|-----------------|-----------------|----------------||
|-----------------|-----------------|-----------------|---------------*||
|-----------2-----|-----------2-----|-----------2-----|---------2------||
|-2-5-4h5p4---5-4-|-2-5-4h5p4---4-5-|-2-5-4h5p4---5-4-|---5-4-5---5-4--||
|-----------------|-----------------|-----------------|---------------*||
|-----------------|-----------------|-----------------|----------------||
 hear.
 grows. 
[ Tab from: http://www.guitartabs.cc/tabs/w/warlord/child_of_the_damned_tab.html ]
 Chorus:....................................................
  E5                            G5                 F#5    E5
|-----------------------------|-----------------------------|
|-----------------------------|-----------------------------|
|-9---------------------------|-12-----------------11-----9-|
|-9---------------------------|-12-----------------11-----9-|
|-7---------------------------|-10------------------9-----7-|
|-----------------------------|-----------------------------|
  I'm the child of the damned I follow where I go

.........................................
  D5                     G5  F#5   D5 C#5  
|---------------------|---------|--------|
|---------------------|---------|--------|
|-7-------------------|--12--11-|--7--6--|
|-7-------------------|--12--11-|--7--6--|
|-5-------------------|--10---9-|--5--4--|
|---------------------|---------|--------|
 Rigging to the cross as ho- ly    as  a

..............................................
  E5
|-----------------|--------------------------|
|-----------------|--------------------------|
|-----------2-----|--------------2-----------|
|-2-5-4h5p4---5-4-|---5---4---5-------5----4-|
|-----------------|--------------------------|
|-----------------|--------------------------|
  whore              I'm just a child of the

..............................................
  E5
|-----------------|--------------------------|
|-----------------|--------------------------|
|-----------2-----|--------------2-----------|
|-2-5-4h5p4---5-4-|---5---4---5-------5----4-|
|-----------------|--------------------------|
|-----------------|--------------------------|
                     I'm just a child 

                              Solo....................................
  E5                           F#5       G5         F#5       E5
|--------------|-------------|---------|----------|---------|---------|
|--------------|-------------|---------|----------|---------|---------|
|--------------|-------------|---------|----------|---------|---------|
|-2------------|-2-----------|-4-------|-5--------|-4-------|-2-------|
|-2------------|-2-----------|-4-------|-5--------|-4-------|-2-------|
|-0------------|-0-----------|-2-------|-3--------|-2-------|-0-------|


Bridge.......................................................
    G5 F#5    E5 F#5        G5 F#5  E5 F#5  3x
||----------|---------||||------------------||---------5-----|
||*---------|--------*||||*----------------*||-/8-7-8----8-7-|
||----------|---------||||------------------||---------2-----|
||---5--4---|-2--4----||||---5--4---2--4----||-/5-4-5----5-4-|
||*--5--4---|-2--4---*||||*--5--4---2--4---*||---------------|
||---3--2---|-0--2----||||---3--2---0--2----||---------------|


Rh.Fig.1..............................................................
  E5
|-----------------|-------------2-3-|-----------------|---------------|
|-----------------|-----------------|-----------------|---------------|
|-----------2-----|-----------2-----|-----------2-----|---------2-----|
|-2-5-4h5p4---5-4-|-2-5-4h5p4-------|-2-5-4h5p4---5-4-|---5-4-5---5-4-|
|-----------------|-----------------|-----------------|---------------|
|-----------------|-----------------|-----------------|---------------|


Rh.Fig.2........................................................
  E5             
||-------------------------------|-----------------------------|
||*------------------------------|-----------------------------|
||--9----------------------------|-(9)-------------------------|
||--9----------------------------|-(9)-------------------------|
||*-7----------------------------|-(7)-------------------------|
||-------------------------------|-----------------------------|
  Give away your life's goals your meanings and ambittions
   Do not be afraid         the     world is near the end is it


..........................................................
   G5                          D5
|----------------------------|----------------------------|
|----------------------------|----------------------------|
|--12------------------------|-7--------------------------|
|--12------------------------|-7--------------------------|
|--10------------------------|-5--------------------------|
|----------------------------|----------------------------|
  It means nothing to you        after all it's super-
  Better to rule in           hell  than it is to serve in


Rh.Fig.1..............................................................
  E5
|-----------------|-----------------|-----------------|----------------||
|-----------------|-----------------|-----------------|---------------*||
|-----------2-----|-----------2-----|-----------2-----|---------2------||
|-2-5-4h5p4---5-4-|-2-5-4h5p4---4-5-|-2-5-4h5p4---5-4-|---5-4-5---5-4--||
|-----------------|-----------------|-----------------|---------------*||
|-----------------|-----------------|-----------------|----------------||
 stision
 heaven?

 Chorus:....................................................
  E5                            G5                 F#5    E5
|-----------------------------|-----------------------------|
|-----------------------------|-----------------------------|
|-9---------------------------|-12-----------------11-----9-|
|-9---------------------------|-12-----------------11-----9-|
|-7---------------------------|-10------------------9-----7-|
|-----------------------------|-----------------------------|
  I'm the child of the damned I follow where I go

.........................................
  D5                     G5  F#5   D5 C#5  
|---------------------|---------|--------|
|---------------------|---------|--------|
|-7-------------------|--12--11-|--7--6--|
|-7-------------------|--12--11-|--7--6--|
|-5-------------------|--10---9-|--5--4--|
|---------------------|---------|--------|
 Rigging to the cross as ho- ly    as  a

..............................................
  E5
|-----------------|--------------------------|
|-----------------|--------------------------|
|-----------2-----|--------------2-----------|
|-2-5-4h5p4---5-4-|---5---4---5-------5----4-|
|-----------------|--------------------------|
|-----------------|--------------------------|
  whore              I'm just a child of the

..............................................
  E5
|-----------------|--------------------------|
|-----------------|--------------------------|
|-----------2-----|--------------2-----------|
|-2-5-4h5p4---5-4-|---5---4---5-------5----4-|
|-----------------|--------------------------|
|-----------------|--------------------------|
                     I'm just a child 

Outro:................................................
|--------------------------|---------------5----------|
|--------------------------|---8---7---8-------8---7--|
|--------------2-----------|--------------------------|
|---5---4---5-------5----4-|--------------------------|
|--------------------------|--------------------------|
|--------------------------|--------------------------|
                              I'm just a child of the


............................
   E5        G5 F#5 D5 C#5
|--------------------------|
|--------------------------|
|--9---------12--11--7--6--|
|--9---------12--11--7--6--|
|--7---------10---9--5--4--|
|--------------------------|
  Damned___________________
Comments