Warlord - Black Mass Chords & Tabs

 

Black Mass Chords & Tabs

Warlord Chords & Tabs

Version: 1 Type: Tab 0 ratings
1 star 2 stars 3 stars 4 stars 5 stars
comments

Black Mass Tab

   
BLACK MASS (Warlord)

Tabbed by Spyros Soldatos lordovol@mailbox.gr 
Homepage http://www.geocities.com/SunsetStrip/Frontrow/8281/
If you have anything that has to do with warlord please email me


  B5   F#5         B5  F#5         B5  F#5         B5  F#5
  Intro .............................................................. 

|----------------|---------------|---------------|-----14-10-12-14-15-|
|----------------|---------------|-----7-5-7-8-7-|--------------------|
|-4--------------|-4-------------|-4-------------|-4------------------|
|-4----4-2-4-5-4-|-4---4-0-2-4-5-|-4-------------|-4------------------|
|-2--------------|-2-------------|-2-------------|-2------------------|
|----------------|---------------|---------------|--------------------|


  Riff1...............................  Fill1.......................
                                     3x
||-----------------|------------------||-------------|-------------|
||*----------------|-----------------*||-------------|-------3-5-7-|
||-----------------|------------------||-------------|-2-4-5-------|
||-----------------|------------------||-------2-4-5-|-------------|
||*-2-2-2-2-0-2--3-|-2-2-2-2-0---0---*||-2-3-5-------|-------------|
||-----------------|-----------3------||-------------|-------------|
							       The

   w/Riff1                            Fill2.........................
                                    3x
||----------------|-----------------||---------------|--------------|
||*---------------|----------------*||---------------|--------------|
||----------------|-----------------||---------------|--------------|
||----------------|-----------------||---------------|-------2-4-5--|
||*-2-2-2-2-0-2-3-|-2-2-2--2-0---0-*||-2-2-2-2-0-2-3-|-2-3-5--------|
||----------------|------------3----||---------------|--------------|
   moon     it was  full     and the
   time     has     come      for us   all

 Riff2............  Fill3.........  
                  7x
||----------------||-------------|
||*--------------*||-------------|
||----------------||-4-2---------|
||----4----2-4-5--||-----5-4-2---|
||*-2---5--------*||-----------5-|
||----------------||-------------|
   sun     it was             The 
   gone   and the
   people     a-
   waited     the
   call.       

Chorus.................................................................
 B5                       C5        D5              B5              

|---------|-------------|---------|---------------|---------|---------|
|---------|-------------|---------|---------------|---------|---------|
|-4-------|-4-----------|-5-------|-7-------------|-4-------|-4-------|
|-4-------|-4-----------|-5-------|-7-------------|-4-------|-4-------|
|-2---2-2-|-2---2-2-----|-3---3-3-|-5-------5-3-0-|-2---2-2-|-2---2-2-|
|---------|-------------|---------|---------------|---------|---------|

 Devil was there with the fire      burning in the air
 Demons they danced and drunk from the chalice they share

..................................................        
C5     D5        B5                C5      D5

|------|---------|-------|-------|-------|--------|
|------|---------|-------|-------|-------|--------|
|------|---------|-4-----|-4-----|-5---7-|-9--11--|
|-5----|-4-0-2-4-|-4-----|-4-----|-------|--------|
|------|---------|-2-2-2-|-2-2-2-|-------|--------|
|------|---------|-------|-------|-------|--------|
                              (Second time) Nobody


  Riff1............(2nd time w/Fill3)   
                                   4x
||----------------|----------------||
||*---------------|---------------*||
||----------------|----------------||
||----------------|----------------||
||*-2-2-2-2-0-2-3-|-2-2-2-2-0---0-*||
||----------------|-----------3----||
   cared

                 
Fill3....................................................

|-------0-2-0---|-7--|-(7)--|-------------|-------------|
|-0h1-3-------3-|----|------|-------------|-------3-5-7-|
|---------------|----|------|-------------|-2-4-5-------|
|---------------|----|------|-------2-4-5-|-------------|
|---------------|----|------|-2-3-5-------|-------------|
|---------------|----|------|-------------|-------------|
                                                Now the

 Riff1..............................  Fill2...........................
                                   2x
||----------------|----------------||-------------------|-------------|
||*---------------|---------------*||-------------------|-------------|
||----------------|----------------||-------------------|-------------|
||----------------|----------------||-------------------|-------2-4-5-|
||*-2-2-2-2-0-2-3-|-2-2-2-2-0---0-*||-2-2--2-2-0-2-3----|-2-3-5-------|
||----------------|-----------3----||-------------------|-------------|
   evil         of  man       was
   passed   by the act of Lucifer's  kiss                    And the 


Riff2............  Fill3.........  
                  7x
||----------------||-------------|
||*--------------*||-------------|
||----------------||-4-2---------|
||----4----2-4-5--||-----5-4-2---|
||*-2---5--------*||-----------5-|
||----------------||-------------|
   evil       broke           The 
   loose  from the
   tombs        of
   Hells  fiery a-      
   Byss.       


Chorus.................................................................
 B5                       C5        D5              B5              
|---------|-------------|---------|---------------|---------|---------|
|---------|-------------|---------|---------------|---------|---------|
|-4-------|-4-----------|-5-------|-7-------------|-4-------|-4-------|
|-4-------|-4-----------|-5-------|-7-------------|-4-------|-4-------|
|-2---2-2-|-2---2-2-----|-3---3-3-|-5-------5-3-0-|-2---2-2-|-2---2-2-|
|---------|-------------|---------|---------------|---------|---------|
[ Tab from: http://www.guitartabs.cc/tabs/w/warlord/black_mass_tab.html ]
 Devil was there with the fire      burning in the air
 Demons they danced and drunk from the chalice they share

..................................................        
C5     D5        B5                C5      D5

|------|---------|-------|-------|-------|--------|
|------|---------|-------|-------|-------|--------|
|------|---------|-4-----|-4-----|-5---7-|-9--11--|
|-5----|-4-0-2-4-|-4-----|-4-----|-------|--------|
|------|---------|-2-2-2-|-2-2-2-|-------|--------|
|------|---------|-------|-------|-------|--------|
                              (Second time) Nobody


 Bridge............................................
                                           a.H.
|-------------|-------------|-------------|-------|
|-------------|-------------|-------------|-------|
|-------------|-------------|-------------|-4-----|
|---4---2-4-5-|---4---2-4-5-|---4---2-4-5-|-------|
|-2---5-------|-2---5-------|-2---5-------|-------|
|-------------|-------------|-------------|-------|

 ......................................................
                 4x                 4x                 4x
||---------------||||---------------||||---------------||
||*-------------*||||*-------------*||||*-------------*||
||---------------||||---------------||||---------------||
||----4---2-4-5--||||---------------||||----4---2-4-5--||
||*-2---5-------*||||*---4---2-4-5-*||||*-2---5-------*||
||---------------||||--2---5--------||||---------------||


  ......................................................
                                 4x
||-------------------------------||------------|--------------|
||*-----------------------------*||---------\--|---/7---------|
||-------------------------------||----------\-|--/-----------|
||-------------------------------||--4--------\|/-------------|
||*-----------------------------*||--4---------|--------------|
||--2-2-2-2-3-2-0--2-2-2-2-5-3-0-||--2---------|--------------|



Solo(Chorus2x) Fill4....................................................

|------------||----------------|-------------|--------------|----------||
|------------||*---------------|-------------|--------------|---------*||
|------------||----------------|-------------|--------------|----------||
|------------||--9-10--9-7-9-7-|-5-7-5-4-5-4-|-9-10-9-7-9-7-|-5-7-5-4--||
|------------||*---------------|-------------|--------------|---------*||
|------------||----------------|-------------|--------------|----------||


          Riff1............2nd time w/fill3
  F#5                                     4x
|------||----------------|----------------||
|------||*---------------|---------------*||
|------||----------------|----------------||
|-4----||----------------|----------------||
|-4----||*-2-2-2-2-0-2-3-|-2-2-2-2-0---0-*||
|-2----||----------------|-----------3----||

                 
Fill3...............................................

|-------0-2-0---|-7---|-(7)---|-------------|-------------|
|-0h1-3-------3-|-----|-------|-------------|-------3-5-7-|
|---------------|-----|-------|-------------|-2-4-5-------|
|---------------|-----|-------|-------2-4-5-|-------------|
|---------------|-----|-------|-2-3-5-------|-------------|
|---------------|-----|-------|-------------|-------------|
                                            Now the



 Riff1..............................  Fill2...........................
                                   2x
||----------------|----------------||-------------------|-------------|
||*---------------|---------------*||-------------------|-------------|
||----------------|----------------||-------------------|-------------|
||----------------|----------------||-------------------|-------2-4-5-|
||*-2-2-2-2-0-2-3-|-2-2-2-2-0---0-*||-2-2--2-2-0-2-3----|-2-3-5-------|
||----------------|-----------3----||-------------------|-------------|
   prince    knelt  down      for      
  communion  of the time       it     fasts                    And the

Riff2............  Fill3.........  
                  7x
||----------------||-------------|
||*--------------*||-------------|
||----------------||-4-2---------|
||----4----2-4-5--||-----5-4-2---|
||*-2---5--------*||-----------5-|
||----------------||-------------|
  father        he
  blessed      his 
  child with   the
  blood    of this  
  mass.                      The

Chorus.................................................................
 B5                       C5        D5              B5              

||----------|-------------|---------|---------------|---------|---------|
||*---------|-------------|---------|---------------|---------|---------|
||--4-------|-4-----------|-5-------|-7-------------|-4-------|-4-------|
||--4-------|-4-----------|-5-------|-7-------------|-4-------|-4-------|
||*-2---2-2-|-2---2-2-----|-3---3-3-|-5-------5-3-0-|-2---2-2-|-2---2-2-|
||----------|-------------|---------|---------------|---------|---------|
 Devil was there with the fire      burning in the air
 Demons they danced and drunk from the chalice they share
 (Third and fourth time) Care         Nobody          cared     
            

..................................................        
C5     D5        B5                C5      D5
						  4x
|------|---------|-------|-------|-------|--------||
|------|---------|-------|-------|-------|-------*||
|------|---------|-4-----|-4-----|-5---7-|-9--11--||
|-5----|-4-0-2-4-|-4-----|-4-----|-------|--------||
|------|---------|-2-2-2-|-2-2-2-|-------|-------*||
|------|---------|-------|-------|-------|--------||
                               (Second time) Nobody
       Did nobody  cared


  Fill5..........................................
   B5                          C5        B5 
||------|-----|-------|---------------||-------||
||*-----|-----|-------|--------------*||-------||
||--4---|-4---|-4-----|--4-4-4-5-5-5--||-4-----||
||--4---|-4---|-4-----|--4-4-4-5-5-5--||-4-----||
||*-2---|-2---|-2-----|--2-2-2-3-3-3-*||-2-----||
||------|-----|-------|---------------||-------||
Comments